  0
SECTION
  2
HEADER
  9
$ACADVER
  1
AC1009
  9
$DWGCODEPAGE
  3
ansi_1252
  9
$INSBASE
 10
0.0
 20
0.0
 30
0.0
  9
$EXTMIN
 10
-110.6849272852662
 20
1.303375447949183
 30
0.0
  9
$EXTMAX
 10
294.3248745276247
 20
83.36200187830296
 30
0.0
  9
$LIMMIN
 10
0.0
 20
0.0
  9
$LIMMAX
 10
12.0
 20
9.0
  9
$ORTHOMODE
 70
     0
  9
$REGENMODE
 70
     1
  9
$FILLMODE
 70
     1
  9
$QTEXTMODE
 70
     0
  9
$MIRRTEXT
 70
     1
  9
$DRAGMODE
 70
     2
  9
$LTSCALE
 40
1.0
  9
$OSMODE
 70
    37
  9
$ATTMODE
 70
     1
  9
$TEXTSIZE
 40
0.2
  9
$TRACEWID
 40
0.05
  9
$TEXTSTYLE
  7
STANDARD
  9
$CLAYER
  8
0
  9
$CELTYPE
  6
BYLAYER
  9
$CECOLOR
 62
   256
  9
$DIMSCALE
 40
1.0
  9
$DIMASZ
 40
0.18
  9
$DIMEXO
 40
0.0625
  9
$DIMDLI
 40
0.38
  9
$DIMRND
 40
0.0
  9
$DIMDLE
 40
0.0
  9
$DIMEXE
 40
0.18
  9
$DIMTP
 40
0.0
  9
$DIMTM
 40
0.0
  9
$DIMTXT
 40
0.18
  9
$DIMCEN
 40
0.09
  9
$DIMTSZ
 40
0.0
  9
$DIMTOL
 70
     0
  9
$DIMLIM
 70
     0
  9
$DIMTIH
 70
     1
  9
$DIMTOH
 70
     1
  9
$DIMSE1
 70
     0
  9
$DIMSE2
 70
     0
  9
$DIMTAD
 70
     0
  9
$DIMZIN
 70
     0
  9
$DIMBLK
  1

  9
$DIMASO
 70
     1
  9
$DIMSHO
 70
     1
  9
$DIMPOST
  1

  9
$DIMAPOST
  1

  9
$DIMALT
 70
     0
  9
$DIMALTD
 70
     2
  9
$DIMALTF
 40
25.4
  9
$DIMLFAC
 40
1.0
  9
$DIMTOFL
 70
     0
  9
$DIMTVP
 40
0.0
  9
$DIMTIX
 70
     0
  9
$DIMSOXD
 70
     0
  9
$DIMSAH
 70
     0
  9
$DIMBLK1
  1

  9
$DIMBLK2
  1

  9
$DIMSTYLE
  2
STANDARD
  9
$DIMCLRD
 70
     0
  9
$DIMCLRE
 70
     0
  9
$DIMCLRT
 70
     0
  9
$DIMTFAC
 40
1.0
  9
$DIMGAP
 40
0.09
  9
$LUNITS
 70
     2
  9
$LUPREC
 70
     4
  9
$SKETCHINC
 40
0.1
  9
$FILLETRAD
 40
0.5
  9
$AUNITS
 70
     0
  9
$AUPREC
 70
     0
  9
$MENU
  1
.
  9
$ELEVATION
 40
0.0
  9
$PELEVATION
 40
0.0
  9
$THICKNESS
 40
0.0
  9
$LIMCHECK
 70
     0
  9
$CHAMFERA
 40
0.0
  9
$CHAMFERB
 40
0.0
  9
$SKPOLY
 70
     0
  9
$TDCREATE
 40
2454910.5
  9
$TDUPDATE
 40
2458317.339536366
  9
$TDINDWG
 40
0.0000000116
  9
$TDUSRTIMER
 40
0.0000000116
  9
$USRTIMER
 70
     1
  9
$ANGBASE
 50
0.0
  9
$ANGDIR
 70
     0
  9
$PDMODE
 70
     0
  9
$PDSIZE
 40
0.0
  9
$PLINEWID
 40
0.0
  9
$COORDS
 70
     1
  9
$SPLFRAME
 70
     0
  9
$SPLINETYPE
 70
     6
  9
$SPLINESEGS
 70
     8
  9
$ATTDIA
 70
     0
  9
$ATTREQ
 70
     1
  9
$HANDLING
 70
     1
  9
$HANDSEED
  5
EBD
  9
$SURFTAB1
 70
     6
  9
$SURFTAB2
 70
     6
  9
$SURFTYPE
 70
     6
  9
$SURFU
 70
     6
  9
$SURFV
 70
     6
  9
$UCSNAME
  2

  9
$UCSORG
 10
0.0
 20
0.0
 30
0.0
  9
$UCSXDIR
 10
1.0
 20
0.0
 30
0.0
  9
$UCSYDIR
 10
0.0
 20
1.0
 30
0.0
  9
$PUCSNAME
  2

  9
$PUCSORG
 10
0.0
 20
0.0
 30
0.0
  9
$PUCSXDIR
 10
1.0
 20
0.0
 30
0.0
  9
$PUCSYDIR
 10
0.0
 20
1.0
 30
0.0
  9
$USERI1
 70
     0
  9
$USERI2
 70
     0
  9
$USERI3
 70
     0
  9
$USERI4
 70
     0
  9
$USERI5
 70
     0
  9
$USERR1
 40
0.0
  9
$USERR2
 40
0.0
  9
$USERR3
 40
0.0
  9
$USERR4
 40
0.0
  9
$USERR5
 40
0.0
  9
$WORLDVIEW
 70
     1
  9
$SHADEDGE
 70
     3
  9
$SHADEDIF
 70
    70
  9
$TILEMODE
 70
     1
  9
$MAXACTVP
 70
    64
  9
$PLIMCHECK
 70
     0
  9
$PEXTMIN
 10
1.000000000000000E+20
 20
1.000000000000000E+20
 30
1.000000000000000E+20
  9
$PEXTMAX
 10
-1.000000000000000E+20
 20
-1.000000000000000E+20
 30
-1.000000000000000E+20
  9
$PLIMMIN
 10
0.0
 20
0.0
  9
$PLIMMAX
 10
12.0
 20
9.0
  9
$UNITMODE
 70
     0
  9
$VISRETAIN
 70
     1
  9
$PLINEGEN
 70
     0
  9
$PSLTSCALE
 70
     1
  0
ENDSEC
  0
SECTION
  2
TABLES
  0
TABLE
  2
VPORT
 70
     1
  0
VPORT
  2
*ACTIVE
 70
     0
 10
0.0
 20
0.0
 11
1.0
 21
1.0
 12
10.42990654205607
 22
4.5
 13
0.0
 23
0.0
 14
0.5
 24
0.5
 15
0.5
 25
0.5
 16
0.0
 26
0.0
 36
1.0
 17
0.0
 27
0.0
 37
0.0
 40
9.0
 41
1.972972972850329
 42
50.0
 43
0.0
 44
0.0
 50
0.0
 51
0.0
 71
     0
 72
   100
 73
     1
 74
     3
 75
     0
 76
     0
 77
     0
 78
     0
  0
ENDTAB
  0
TABLE
  2
LTYPE
 70
     2
  0
LTYPE
  2
CONTINUOUS
 70
     0
  3
Solid line
 72
    65
 73
     0
 40
0.0
  0
LTYPE
  2
CONTINUOUS2
 70
     0
  3
Solid Line
 72
    65
 73
     0
 40
0.0
  0
ENDTAB
  0
TABLE
  2
LAYER
 70
     2
  0
LAYER
  2
0
 70
     0
 62
     7
  6
CONTINUOUS
  0
LAYER
  2
CK_LEVEL_1
 70
     0
 62
    18
  6
CONTINUOUS
  0
ENDTAB
  0
TABLE
  2
STYLE
 70
     1
  0
STYLE
  2
STANDARD
 70
     0
 40
0.0
 41
1.0
 50
0.0
 71
     0
 42
0.2
  3
txt
  4

  0
ENDTAB
  0
TABLE
  2
VIEW
 70
     0
  0
ENDTAB
  0
TABLE
  2
UCS
 70
     0
  0
ENDTAB
  0
TABLE
  2
APPID
 70
     1
  0
APPID
  2
ACAD
 70
     0
  0
ENDTAB
  0
TABLE
  2
DIMSTYLE
 70
     1
  0
DIMSTYLE
  2
STANDARD
 70
     0
  3

  4

  5

  6

  7

 40
1.0
 41
0.18
 42
0.0625
 43
0.38
 44
0.18
 45
0.0
 46
0.0
 47
0.0
 48
0.0
140
0.18
141
0.09
142
0.0
143
25.4
144
1.0
145
0.0
146
1.0
147
0.09
 71
     0
 72
     0
 73
     1
 74
     1
 75
     0
 76
     0
 77
     0
 78
     0
170
     0
171
     2
172
     0
173
     0
174
     0
175
     0
176
     0
177
     0
178
     0
  0
ENDTAB
  0
ENDSEC
  0
SECTION
  2
BLOCKS
  0
BLOCK
  8
0
  2
$MODEL_SPACE
 70
     0
 10
0.0
 20
0.0
 30
0.0
  3
$MODEL_SPACE
  1

  0
ENDBLK
  5
21
  8
0
  0
BLOCK
 67
     1
  8
0
  2
$PAPER_SPACE
 70
     0
 10
0.0
 20
0.0
 30
0.0
  3
$PAPER_SPACE
  1

  0
ENDBLK
  5
1D
 67
     1
  8
0
  0
ENDSEC
  0
SECTION
  2
ENTITIES
  0
POLYLINE
  5
70
  8
CK_LEVEL_1
 66
     1
 10
0.0
 20
0.0
 30
0.0
 70
     1
  0
VERTEX
  5
143
  8
CK_LEVEL_1
 10
-59.14801328526615
 20
16.53697496551716
 30
0.0
 42
0.4142135623730951
  0
VERTEX
  5
144
  8
CK_LEVEL_1
 10
-62.14801328526615
 20
13.53697496551716
 30
0.0
 42
0.4142135623730951
  0
VERTEX
  5
145
  8
CK_LEVEL_1
 10
-59.14801328526615
 20
10.53697496551716
 30
0.0
 42
0.4142135623730951
  0
VERTEX
  5
146
  8
CK_LEVEL_1
 10
-56.14801328526615
 20
13.53697496551716
 30
0.0
 42
0.4142135623730951
  0
SEQEND
  5
DF1
  8
CK_LEVEL_1
  0
POLYLINE
  5
71
  8
CK_LEVEL_1
 66
     1
 10
0.0
 20
0.0
 30
0.0
 70
     1
  0
VERTEX
  5
147
  8
CK_LEVEL_1
 10
-61.14801328526615
 20
13.66697496551716
 30
0.0
 42
0.4142135623730951
  0
VERTEX
  5
148
  8
CK_LEVEL_1
 10
-61.27801328526616
 20
13.53697496551716
 30
0.0
 42
0.4142135623730951
  0
VERTEX
  5
149
  8
CK_LEVEL_1
 10
-61.14801328526615
 20
13.40697496551716
 30
0.0
 42
0.4142135623730951
  0
VERTEX
  5
14A
  8
CK_LEVEL_1
 10
-61.01801328526615
 20
13.53697496551716
 30
0.0
 42
0.4142135623730951
  0
SEQEND
  5
DF2
  8
CK_LEVEL_1
  0
POLYLINE
  5
72
  8
CK_LEVEL_1
 66
     1
 10
0.0
 20
0.0
 30
0.0
 70
     1
  0
VERTEX
  5
14B
  8
CK_LEVEL_1
 10
-66.9000409937301
 20
33.64100296551717
 30
0.0
 42
0.4142135623730951
  0
VERTEX
  5
14C
  8
CK_LEVEL_1
 10
-67.22004099373011
 20
33.32100296551717
 30
0.0
 42
0.4142135623730951
  0
VERTEX
  5
14D
  8
CK_LEVEL_1
 10
-66.9000409937301
 20
33.00100296551717
 30
0.0
 42
0.4142135623730951
  0
VERTEX
  5
14E
  8
CK_LEVEL_1
 10
-66.58004099373011
 20
33.32100296551717
 30
0.0
 42
0.4142135623730951
  0
SEQEND
  5
DF3
  8
CK_LEVEL_1
  0
POLYLINE
  5
73
  8
CK_LEVEL_1
 66
     1
 10
0.0
 20
0.0
 30
0.0
 70
     1
  0
VERTEX
  5
14F
  8
CK_LEVEL_1
 10
-103.1556112852661
 20
12.93706896551716
 30
0.0
 42
0.4142135623730951
  0
VERTEX
  5
150
  8
CK_LEVEL_1
 10
-103.7306112852661
 20
12.36206896551716
 30
0.0
 42
0.4142135623730951
  0
VERTEX
  5
151
  8
CK_LEVEL_1
 10
-103.1556112852661
 20
11.78706896551716
 30
0.0
 42
0.4142135623730951
  0
VERTEX
  5
152
  8
CK_LEVEL_1
 10
-102.5806112852661
 20
12.36206896551716
 30
0.0
 42
0.4142135623730951
  0
SEQEND
  5
DF4
  8
CK_LEVEL_1
  0
POLYLINE
  5
74
  8
CK_LEVEL_1
 66
     1
 10
0.0
 20
0.0
 30
0.0
 70
     1
  0
VERTEX
  5
153
  8
CK_LEVEL_1
 10
-94.43492728526607
 20
7.42211496551716
 30
0.0
 42
0.4142135623730951
  0
VERTEX
  5
154
  8
CK_LEVEL_1
 10
-94.56492728526607
 20
7.292114965517159
 30
0.0
 42
0.4142135623730951
  0
VERTEX
  5
155
  8
CK_LEVEL_1
 10
-94.43492728526607
 20
7.16211496551716
 30
0.0
 42
0.4142135623730951
  0
VERTEX
  5
156
  8
CK_LEVEL_1
 10
-94.30492728526607
 20
7.292114965517159
 30
0.0
 42
0.4142135623730951
  0
SEQEND
  5
DF5
  8
CK_LEVEL_1
  0
POLYLINE
  5
75
  8
CK_LEVEL_1
 66
     1
 10
0.0
 20
0.0
 30
0.0
 70
     1
  0
VERTEX
  5
157
  8
CK_LEVEL_1
 10
-72.53561128526616
 20
12.93706896551716
 30
0.0
 42
0.4142135623730951
  0
VERTEX
  5
158
  8
CK_LEVEL_1
 10
-73.11061128526616
 20
12.36206896551716
 30
0.0
 42
0.4142135623730951
  0
VERTEX
  5
159
  8
CK_LEVEL_1
 10
-72.53561128526616
 20
11.78706896551716
 30
0.0
 42
0.4142135623730951
  0
VERTEX
  5
15A
  8
CK_LEVEL_1
 10
-71.96061128526615
 20
12.36206896551716
 30
0.0
 42
0.4142135623730951
  0
SEQEND
  5
DF6
  8
CK_LEVEL_1
  0
POLYLINE
  5
76
  8
CK_LEVEL_1
 66
     1
 10
0.0
 20
0.0
 30
0.0
 70
     1
  0
VERTEX
  5
15B
  8
CK_LEVEL_1
 10
-109.6849272852662
 20
7.42211496551716
 30
0.0
 42
0.4142135623730951
  0
VERTEX
  5
15C
  8
CK_LEVEL_1
 10
-109.8149272852662
 20
7.292114965517159
 30
0.0
 42
0.4142135623730951
  0
VERTEX
  5
15D
  8
CK_LEVEL_1
 10
-109.6849272852662
 20
7.16211496551716
 30
0.0
 42
0.4142135623730951
  0
VERTEX
  5
15E
  8
CK_LEVEL_1
 10
-109.5549272852662
 20
7.292114965517159
 30
0.0
 42
0.4142135623730951
  0
SEQEND
  5
DF7
  8
CK_LEVEL_1
  0
POLYLINE
  5
77
  8
CK_LEVEL_1
 66
     1
 10
0.0
 20
0.0
 30
0.0
 70
     1
  0
VERTEX
  5
15F
  8
CK_LEVEL_1
 10
-67.09561128526616
 20
12.49206896551716
 30
0.0
 42
0.4142135623730951
  0
VERTEX
  5
160
  8
CK_LEVEL_1
 10
-67.22561128526615
 20
12.36206896551716
 30
0.0
 42
0.4142135623730951
  0
VERTEX
  5
161
  8
CK_LEVEL_1
 10
-67.09561128526616
 20
12.23206896551716
 30
0.0
 42
0.4142135623730951
  0
VERTEX
  5
162
  8
CK_LEVEL_1
 10
-66.96561128526615
 20
12.36206896551716
 30
0.0
 42
0.4142135623730951
  0
SEQEND
  5
DF8
  8
CK_LEVEL_1
  0
POLYLINE
  5
78
  8
CK_LEVEL_1
 66
     1
 10
0.0
 20
0.0
 30
0.0
 70
     1
  0
VERTEX
  5
163
  8
CK_LEVEL_1
 10
-87.8456112852661
 20
40.18206896551715
 30
0.0
 42
0.4142135623730951
  0
VERTEX
  5
164
  8
CK_LEVEL_1
 10
-88.16561128526611
 20
39.86206896551715
 30
0.0
 42
0.4142135623730951
  0
VERTEX
  5
165
  8
CK_LEVEL_1
 10
-87.8456112852661
 20
39.54206896551715
 30
0.0
 42
0.4142135623730951
  0
VERTEX
  5
166
  8
CK_LEVEL_1
 10
-87.52561128526611
 20
39.86206896551715
 30
0.0
 42
0.4142135623730951
  0
SEQEND
  5
DF9
  8
CK_LEVEL_1
  0
POLYLINE
  5
79
  8
CK_LEVEL_1
 66
     1
 10
0.0
 20
0.0
 30
0.0
 70
     1
  0
VERTEX
  5
167
  8
CK_LEVEL_1
 10
-89.2509552852661
 20
7.812976965517159
 30
0.0
 42
0.4142135623730951
  0
VERTEX
  5
168
  8
CK_LEVEL_1
 10
-89.5709552852661
 20
7.49297696551716
 30
0.0
 42
0.4142135623730951
  0
VERTEX
  5
169
  8
CK_LEVEL_1
 10
-89.2509552852661
 20
7.17297696551716
 30
0.0
 42
0.4142135623730951
  0
VERTEX
  5
16A
  8
CK_LEVEL_1
 10
-88.9309552852661
 20
7.49297696551716
 30
0.0
 42
0.4142135623730951
  0
SEQEND
  5
DFA
  8
CK_LEVEL_1
  0
POLYLINE
  5
7A
  8
CK_LEVEL_1
 66
     1
 10
0.0
 20
0.0
 30
0.0
 70
     1
  0
VERTEX
  5
16B
  8
CK_LEVEL_1
 10
-79.68940428526615
 20
27.66914096551718
 30
0.0
 42
0.4142135623730951
  0
VERTEX
  5
16C
  8
CK_LEVEL_1
 10
-79.81940428526615
 20
27.53914096551718
 30
0.0
 42
0.4142135623730951
  0
VERTEX
  5
16D
  8
CK_LEVEL_1
 10
-79.68940428526615
 20
27.40914096551718
 30
0.0
 42
0.4142135623730951
  0
VERTEX
  5
16E
  8
CK_LEVEL_1
 10
-79.55940428526615
 20
27.53914096551718
 30
0.0
 42
0.4142135623730951
  0
SEQEND
  5
DFB
  8
CK_LEVEL_1
  0
POLYLINE
  5
7B
  8
CK_LEVEL_1
 66
     1
 10
0.0
 20
0.0
 30
0.0
 70
     1
  0
VERTEX
  5
16F
  8
CK_LEVEL_1
 10
-108.5956112852661
 20
12.49206896551716
 30
0.0
 42
0.4142135623730951
  0
VERTEX
  5
170
  8
CK_LEVEL_1
 10
-108.7256112852662
 20
12.36206896551716
 30
0.0
 42
0.4142135623730951
  0
VERTEX
  5
171
  8
CK_LEVEL_1
 10
-108.5956112852661
 20
12.23206896551716
 30
0.0
 42
0.4142135623730951
  0
VERTEX
  5
172
  8
CK_LEVEL_1
 10
-108.4656112852661
 20
12.36206896551716
 30
0.0
 42
0.4142135623730951
  0
SEQEND
  5
DFC
  8
CK_LEVEL_1
  0
POLYLINE
  5
7C
  8
CK_LEVEL_1
 66
     1
 10
0.0
 20
0.0
 30
0.0
 70
     1
  0
VERTEX
  5
173
  8
CK_LEVEL_1
 10
-81.00095528526614
 20
7.812976965517159
 30
0.0
 42
0.4142135623730951
  0
VERTEX
  5
174
  8
CK_LEVEL_1
 10
-81.32095528526614
 20
7.49297696551716
 30
0.0
 42
0.4142135623730951
  0
VERTEX
  5
175
  8
CK_LEVEL_1
 10
-81.00095528526614
 20
7.17297696551716
 30
0.0
 42
0.4142135623730951
  0
VERTEX
  5
176
  8
CK_LEVEL_1
 10
-80.68095528526615
 20
7.49297696551716
 30
0.0
 42
0.4142135623730951
  0
SEQEND
  5
DFD
  8
CK_LEVEL_1
  0
POLYLINE
  5
7D
  8
CK_LEVEL_1
 66
     1
 10
0.0
 20
0.0
 30
0.0
 70
     1
  0
VERTEX
  5
177
  8
CK_LEVEL_1
 10
-59.14801328526615
 20
14.11197496551716
 30
0.0
 42
0.4142135623730951
  0
VERTEX
  5
178
  8
CK_LEVEL_1
 10
-59.72301328526616
 20
13.53697496551716
 30
0.0
 42
0.4142135623730951
  0
VERTEX
  5
179
  8
CK_LEVEL_1
 10
-59.14801328526615
 20
12.96197496551716
 30
0.0
 42
0.4142135623730951
  0
VERTEX
  5
17A
  8
CK_LEVEL_1
 10
-58.57301328526614
 20
13.53697496551716
 30
0.0
 42
0.4142135623730951
  0
SEQEND
  5
DFE
  8
CK_LEVEL_1
  0
POLYLINE
  5
7E
  8
CK_LEVEL_1
 66
     1
 10
0.0
 20
0.0
 30
0.0
 70
     1
  0
VERTEX
  5
17B
  8
CK_LEVEL_1
 10
-46.00095528526613
 20
7.622976965517159
 30
0.0
 42
0.4142135623730951
  0
VERTEX
  5
17C
  8
CK_LEVEL_1
 10
-46.13095528526613
 20
7.49297696551716
 30
0.0
 42
0.4142135623730951
  0
VERTEX
  5
17D
  8
CK_LEVEL_1
 10
-46.00095528526613
 20
7.362976965517159
 30
0.0
 42
0.4142135623730951
  0
VERTEX
  5
17E
  8
CK_LEVEL_1
 10
-45.87095528526615
 20
7.49297696551716
 30
0.0
 42
0.4142135623730951
  0
SEQEND
  5
DFF
  8
CK_LEVEL_1
  0
POLYLINE
  5
7F
  8
CK_LEVEL_1
 66
     1
 10
0.0
 20
0.0
 30
0.0
 70
     1
  0
VERTEX
  5
17F
  8
CK_LEVEL_1
 10
-96.00181828526607
 20
27.66914096551718
 30
0.0
 42
0.4142135623730951
  0
VERTEX
  5
180
  8
CK_LEVEL_1
 10
-96.13181828526606
 20
27.53914096551718
 30
0.0
 42
0.4142135623730951
  0
VERTEX
  5
181
  8
CK_LEVEL_1
 10
-96.00181828526607
 20
27.40914096551718
 30
0.0
 42
0.4142135623730951
  0
VERTEX
  5
182
  8
CK_LEVEL_1
 10
-95.87181828526606
 20
27.53914096551718
 30
0.0
 42
0.4142135623730951
  0
SEQEND
  5
E00
  8
CK_LEVEL_1
  0
POLYLINE
  5
80
  8
CK_LEVEL_1
 66
     1
 10
0.0
 20
0.0
 30
0.0
 70
     1
  0
VERTEX
  5
183
  8
CK_LEVEL_1
 10
-88.2509552852661
 20
7.622976965517159
 30
0.0
 42
0.4142135623730951
  0
VERTEX
  5
184
  8
CK_LEVEL_1
 10
-88.3809552852661
 20
7.49297696551716
 30
0.0
 42
0.4142135623730951
  0
VERTEX
  5
185
  8
CK_LEVEL_1
 10
-88.2509552852661
 20
7.362976965517159
 30
0.0
 42
0.4142135623730951
  0
VERTEX
  5
186
  8
CK_LEVEL_1
 10
-88.1209552852661
 20
7.49297696551716
 30
0.0
 42
0.4142135623730951
  0
SEQEND
  5
E01
  8
CK_LEVEL_1
  0
POLYLINE
  5
81
  8
CK_LEVEL_1
 66
     1
 10
0.0
 20
0.0
 30
0.0
 70
     1
  0
VERTEX
  5
187
  8
CK_LEVEL_1
 10
-57.14801328526615
 20
13.66697496551716
 30
0.0
 42
0.4142135623730951
  0
VERTEX
  5
188
  8
CK_LEVEL_1
 10
-57.27801328526615
 20
13.53697496551716
 30
0.0
 42
0.4142135623730951
  0
VERTEX
  5
189
  8
CK_LEVEL_1
 10
-57.14801328526615
 20
13.40697496551716
 30
0.0
 42
0.4142135623730951
  0
VERTEX
  5
18A
  8
CK_LEVEL_1
 10
-57.01801328526614
 20
13.53697496551716
 30
0.0
 42
0.4142135623730951
  0
SEQEND
  5
E02
  8
CK_LEVEL_1
  0
POLYLINE
  5
82
  8
CK_LEVEL_1
 66
     1
 10
0.0
 20
0.0
 30
0.0
 70
     1
  0
VERTEX
  5
18B
  8
CK_LEVEL_1
 10
-38.38770828526621
 20
51.11824796551713
 30
0.0
  0
VERTEX
  5
18C
  8
CK_LEVEL_1
 10
-36.36770828526624
 20
51.11824796551713
 30
0.0
  0
VERTEX
  5
18D
  8
CK_LEVEL_1
 10
-36.36770828526624
 20
51.84824796551713
 30
0.0
  0
VERTEX
  5
18E
  8
CK_LEVEL_1
 10
-38.38770828526621
 20
51.84824796551713
 30
0.0
  0
SEQEND
  5
E03
  8
CK_LEVEL_1
  0
POLYLINE
  5
83
  8
CK_LEVEL_1
 66
     1
 10
0.0
 20
0.0
 30
0.0
 70
     1
  0
VERTEX
  5
18F
  8
CK_LEVEL_1
 10
-38.38770828526621
 20
46.34824796551713
 30
0.0
  0
VERTEX
  5
190
  8
CK_LEVEL_1
 10
-38.38770828526621
 20
47.07824796551713
 30
0.0
  0
VERTEX
  5
191
  8
CK_LEVEL_1
 10
-36.36770828526624
 20
47.07824796551713
 30
0.0
  0
VERTEX
  5
192
  8
CK_LEVEL_1
 10
-36.36770828526624
 20
46.34824796551713
 30
0.0
  0
SEQEND
  5
E04
  8
CK_LEVEL_1
  0
POLYLINE
  5
84
  8
CK_LEVEL_1
 66
     1
 10
0.0
 20
0.0
 30
0.0
 70
     1
  0
VERTEX
  5
193
  8
CK_LEVEL_1
 10
-51.38770828526614
 20
51.11824796551713
 30
0.0
  0
VERTEX
  5
194
  8
CK_LEVEL_1
 10
-49.36770828526614
 20
51.11824796551713
 30
0.0
  0
VERTEX
  5
195
  8
CK_LEVEL_1
 10
-49.36770828526614
 20
51.84824796551713
 30
0.0
  0
VERTEX
  5
196
  8
CK_LEVEL_1
 10
-51.38770828526614
 20
51.84824796551713
 30
0.0
  0
SEQEND
  5
E05
  8
CK_LEVEL_1
  0
POLYLINE
  5
85
  8
CK_LEVEL_1
 66
     1
 10
0.0
 20
0.0
 30
0.0
 70
     1
  0
VERTEX
  5
197
  8
CK_LEVEL_1
 10
-51.38770828526614
 20
46.34824796551713
 30
0.0
  0
VERTEX
  5
198
  8
CK_LEVEL_1
 10
-49.36770828526614
 20
46.34824796551713
 30
0.0
  0
VERTEX
  5
199
  8
CK_LEVEL_1
 10
-49.36770828526614
 20
47.07824796551713
 30
0.0
  0
VERTEX
  5
19A
  8
CK_LEVEL_1
 10
-51.38770828526614
 20
47.07824796551713
 30
0.0
  0
SEQEND
  5
E06
  8
CK_LEVEL_1
  0
POLYLINE
  5
86
  8
CK_LEVEL_1
 66
     1
 10
0.0
 20
0.0
 30
0.0
 70
     1
  0
VERTEX
  5
19B
  8
CK_LEVEL_1
 10
-62.88770828526615
 20
51.11824796551713
 30
0.0
  0
VERTEX
  5
19C
  8
CK_LEVEL_1
 10
-62.88770828526615
 20
51.84824796551713
 30
0.0
  0
VERTEX
  5
19D
  8
CK_LEVEL_1
 10
-60.86770828526615
 20
51.84824796551713
 30
0.0
  0
VERTEX
  5
19E
  8
CK_LEVEL_1
 10
-60.86770828526615
 20
51.11824796551713
 30
0.0
  0
SEQEND
  5
E07
  8
CK_LEVEL_1
  0
POLYLINE
  5
87
  8
CK_LEVEL_1
 66
     1
 10
0.0
 20
0.0
 30
0.0
 70
     1
  0
VERTEX
  5
19F
  8
CK_LEVEL_1
 10
-62.88770828526615
 20
46.34824796551713
 30
0.0
  0
VERTEX
  5
1A0
  8
CK_LEVEL_1
 10
-62.88770828526615
 20
47.07824796551713
 30
0.0
  0
VERTEX
  5
1A1
  8
CK_LEVEL_1
 10
-60.86770828526615
 20
47.07824796551713
 30
0.0
  0
VERTEX
  5
1A2
  8
CK_LEVEL_1
 10
-60.86770828526615
 20
46.34824796551713
 30
0.0
  0
SEQEND
  5
E08
  8
CK_LEVEL_1
  0
POLYLINE
  5
88
  8
CK_LEVEL_1
 66
     1
 10
0.0
 20
0.0
 30
0.0
 70
     1
  0
VERTEX
  5
1A3
  8
CK_LEVEL_1
 10
-75.88770828526616
 20
51.11824796551713
 30
0.0
  0
VERTEX
  5
1A4
  8
CK_LEVEL_1
 10
-73.86770828526616
 20
51.11824796551713
 30
0.0
  0
VERTEX
  5
1A5
  8
CK_LEVEL_1
 10
-73.86770828526616
 20
51.84824796551713
 30
0.0
  0
VERTEX
  5
1A6
  8
CK_LEVEL_1
 10
-75.88770828526616
 20
51.84824796551713
 30
0.0
  0
SEQEND
  5
E09
  8
CK_LEVEL_1
  0
POLYLINE
  5
89
  8
CK_LEVEL_1
 66
     1
 10
0.0
 20
0.0
 30
0.0
 70
     1
  0
VERTEX
  5
1A7
  8
CK_LEVEL_1
 10
-75.88770828526616
 20
46.34824796551713
 30
0.0
  0
VERTEX
  5
1A8
  8
CK_LEVEL_1
 10
-75.88770828526616
 20
47.07824796551713
 30
0.0
  0
VERTEX
  5
1A9
  8
CK_LEVEL_1
 10
-73.86770828526616
 20
47.07824796551713
 30
0.0
  0
VERTEX
  5
1AA
  8
CK_LEVEL_1
 10
-73.86770828526616
 20
46.34824796551713
 30
0.0
  0
SEQEND
  5
E0A
  8
CK_LEVEL_1
  0
POLYLINE
  5
8A
  8
CK_LEVEL_1
 66
     1
 10
0.0
 20
0.0
 30
0.0
 70
     1
  0
VERTEX
  5
1AB
  8
CK_LEVEL_1
 10
-77.87770828526615
 20
46.09824796551713
 30
0.0
  0
VERTEX
  5
1AC
  8
CK_LEVEL_1
 10
-34.37770828526625
 20
46.09824796551713
 30
0.0
  0
VERTEX
  5
1AD
  8
CK_LEVEL_1
 10
-34.37770828526625
 20
52.09824796551713
 30
0.0
  0
VERTEX
  5
1AE
  8
CK_LEVEL_1
 10
-77.87770828526615
 20
52.09824796551713
 30
0.0
  0
SEQEND
  5
E0B
  8
CK_LEVEL_1
  0
POLYLINE
  5
8B
  8
CK_LEVEL_1
 66
     1
 10
0.0
 20
0.0
 30
0.0
 70
     1
  0
VERTEX
  5
1AF
  8
CK_LEVEL_1
 10
-60.79005428526615
 20
27.75553996551718
 30
0.0
  0
VERTEX
  5
1B0
  8
CK_LEVEL_1
 10
-54.00005428526615
 20
27.75553996551718
 30
0.0
  0
VERTEX
  5
1B1
  8
CK_LEVEL_1
 10
-54.00005428526615
 20
35.50553996551717
 30
0.0
  0
VERTEX
  5
1B2
  8
CK_LEVEL_1
 10
-60.79005428526615
 20
35.50553996551717
 30
0.0
  0
SEQEND
  5
E0C
  8
CK_LEVEL_1
  0
POLYLINE
  5
8C
  8
CK_LEVEL_1
 66
     1
 10
0.0
 20
0.0
 30
0.0
 70
     1
  0
VERTEX
  5
1B3
  8
CK_LEVEL_1
 10
-77.87770828526615
 20
39.34824796551715
 30
0.0
  0
VERTEX
  5
1B4
  8
CK_LEVEL_1
 10
-34.37770828526625
 20
39.34824796551715
 30
0.0
  0
VERTEX
  5
1B5
  8
CK_LEVEL_1
 10
-34.37770828526625
 20
41.59824796551714
 30
0.0
  0
VERTEX
  5
1B6
  8
CK_LEVEL_1
 10
-36.37770828526623
 20
41.59824796551714
 30
0.0
  0
VERTEX
  5
1B7
  8
CK_LEVEL_1
 10
-36.37770828526623
 20
42.09824796551713
 30
0.0
  0
VERTEX
  5
1B8
  8
CK_LEVEL_1
 10
-38.37770828526621
 20
42.09824796551713
 30
0.0
  0
VERTEX
  5
1B9
  8
CK_LEVEL_1
 10
-38.37770828526621
 20
41.59824796551714
 30
0.0
  0
VERTEX
  5
1BA
  8
CK_LEVEL_1
 10
-49.37770828526614
 20
41.59824796551714
 30
0.0
  0
VERTEX
  5
1BB
  8
CK_LEVEL_1
 10
-49.37770828526614
 20
42.09824796551713
 30
0.0
  0
VERTEX
  5
1BC
  8
CK_LEVEL_1
 10
-51.37770828526614
 20
42.09824796551713
 30
0.0
  0
VERTEX
  5
1BD
  8
CK_LEVEL_1
 10
-51.37770828526614
 20
41.59824796551714
 30
0.0
  0
VERTEX
  5
1BE
  8
CK_LEVEL_1
 10
-60.87770828526615
 20
41.59824796551714
 30
0.0
  0
VERTEX
  5
1BF
  8
CK_LEVEL_1
 10
-60.87770828526615
 20
42.09824796551713
 30
0.0
  0
VERTEX
  5
1C0
  8
CK_LEVEL_1
 10
-62.87770828526615
 20
42.09824796551713
 30
0.0
  0
VERTEX
  5
1C1
  8
CK_LEVEL_1
 10
-62.87770828526615
 20
41.59824796551714
 30
0.0
  0
VERTEX
  5
1C2
  8
CK_LEVEL_1
 10
-73.87770828526615
 20
41.59824796551714
 30
0.0
  0
VERTEX
  5
1C3
  8
CK_LEVEL_1
 10
-73.87770828526615
 20
42.09824796551713
 30
0.0
  0
VERTEX
  5
1C4
  8
CK_LEVEL_1
 10
-75.87770828526615
 20
42.09824796551713
 30
0.0
  0
VERTEX
  5
1C5
  8
CK_LEVEL_1
 10
-75.87770828526615
 20
41.59824796551714
 30
0.0
  0
VERTEX
  5
1C6
  8
CK_LEVEL_1
 10
-77.87770828526615
 20
41.59824796551714
 30
0.0
  0
SEQEND
  5
E0D
  8
CK_LEVEL_1
  0
POLYLINE
  5
8D
  8
CK_LEVEL_1
 66
     1
 10
0.0
 20
0.0
 30
0.0
 70
     1
  0
VERTEX
  5
1C7
  8
CK_LEVEL_1
 10
-60.70841928526615
 20
18.71547596551716
 30
0.0
  0
VERTEX
  5
1C8
  8
CK_LEVEL_1
 10
-60.70841928526615
 20
26.46547596551718
 30
0.0
  0
VERTEX
  5
1C9
  8
CK_LEVEL_1
 10
-51.95841928526614
 20
26.46547596551718
 30
0.0
  0
VERTEX
  5
1CA
  8
CK_LEVEL_1
 10
-51.95841928526614
 20
18.71547596551716
 30
0.0
  0
SEQEND
  5
E0E
  8
CK_LEVEL_1
  0
POLYLINE
  5
8E
  8
CK_LEVEL_1
 66
     1
 10
0.0
 20
0.0
 30
0.0
 70
     1
  0
VERTEX
  5
1CB
  8
CK_LEVEL_1
 10
-71.02504099373012
 20
18.94600296551716
 30
0.0
  0
VERTEX
  5
1CC
  8
CK_LEVEL_1
 10
-71.02504099373012
 20
27.69600296551718
 30
0.0
  0
VERTEX
  5
1CD
  8
CK_LEVEL_1
 10
-70.2950409937301
 20
27.69600296551718
 30
0.0
  0
VERTEX
  5
1CE
  8
CK_LEVEL_1
 10
-70.2950409937301
 20
19.87600296551716
 30
0.0
  0
VERTEX
  5
1CF
  8
CK_LEVEL_1
 10
-63.50504099373011
 20
19.87600296551716
 30
0.0
  0
VERTEX
  5
1D0
  8
CK_LEVEL_1
 10
-63.50504099373011
 20
27.69600296551718
 30
0.0
  0
VERTEX
  5
1D1
  8
CK_LEVEL_1
 10
-62.77504099373011
 20
27.69600296551718
 30
0.0
  0
VERTEX
  5
1D2
  8
CK_LEVEL_1
 10
-62.77504099373011
 20
18.94600296551716
 30
0.0
  0
VERTEX
  5
1D3
  8
CK_LEVEL_1
 10
-63.50504099373011
 20
18.94600296551716
 30
0.0
  0
VERTEX
  5
1D4
  8
CK_LEVEL_1
 10
-63.50504099373011
 20
19.14600296551716
 30
0.0
  0
VERTEX
  5
1D5
  8
CK_LEVEL_1
 10
-70.2950409937301
 20
19.14600296551716
 30
0.0
  0
VERTEX
  5
1D6
  8
CK_LEVEL_1
 10
-70.2950409937301
 20
18.94600296551716
 30
0.0
  0
SEQEND
  5
E0F
  8
CK_LEVEL_1
  0
POLYLINE
  5
8F
  8
CK_LEVEL_1
 66
     1
 10
0.0
 20
0.0
 30
0.0
 70
     1
  0
VERTEX
  5
1D7
  8
CK_LEVEL_1
 10
-71.2750409937301
 20
18.69600296551716
 30
0.0
  0
VERTEX
  5
1D8
  8
CK_LEVEL_1
 10
-62.52504099373011
 20
18.69600296551716
 30
0.0
  0
VERTEX
  5
1D9
  8
CK_LEVEL_1
 10
-62.52504099373011
 20
27.69600296551718
 30
0.0
  0
VERTEX
  5
1DA
  8
CK_LEVEL_1
 10
-66.03234582665482
 20
33.81809915354783
 30
0.0
 42
0.5795854882992749
  0
VERTEX
  5
1DB
  8
CK_LEVEL_1
 10
-67.7677366608054
 20
33.81809915354783
 30
0.0
  0
VERTEX
  5
1DC
  8
CK_LEVEL_1
 10
-71.2750409937301
 20
27.69600296551718
 30
0.0
  0
SEQEND
  5
E10
  8
CK_LEVEL_1
  0
POLYLINE
  5
90
  8
CK_LEVEL_1
 66
     1
 10
0.0
 20
0.0
 30
0.0
 70
     1
  0
VERTEX
  5
1DD
  8
CK_LEVEL_1
 10
-86.84561128526612
 20
28.53914096551718
 30
0.0
  0
VERTEX
  5
1DE
  8
CK_LEVEL_1
 10
-81.42596828526614
 20
28.53914096551718
 30
0.0
  0
VERTEX
  5
1DF
  8
CK_LEVEL_1
 10
-86.84561128526612
 20
37.87760196551715
 30
0.0
  0
SEQEND
  5
E11
  8
CK_LEVEL_1
  0
POLYLINE
  5
91
  8
CK_LEVEL_1
 66
     1
 10
0.0
 20
0.0
 30
0.0
 70
     1
  0
VERTEX
  5
1E0
  8
CK_LEVEL_1
 10
-94.26525428526607
 20
28.53914096551718
 30
0.0
  0
VERTEX
  5
1E1
  8
CK_LEVEL_1
 10
-88.8456112852661
 20
28.53914096551718
 30
0.0
  0
VERTEX
  5
1E2
  8
CK_LEVEL_1
 10
-88.8456112852661
 20
37.87760196551715
 30
0.0
  0
SEQEND
  5
E12
  8
CK_LEVEL_1
  0
POLYLINE
  5
92
  8
CK_LEVEL_1
 66
     1
 10
0.0
 20
0.0
 30
0.0
 70
     1
  0
VERTEX
  5
1E3
  8
CK_LEVEL_1
 10
-86.84561128526612
 20
13.86206896551716
 30
0.0
  0
VERTEX
  5
1E4
  8
CK_LEVEL_1
 10
-86.84561128526612
 20
26.53914096551718
 30
0.0
  0
VERTEX
  5
1E5
  8
CK_LEVEL_1
 10
-80.26525428526615
 20
26.53914096551718
 30
0.0
  0
VERTEX
  5
1E6
  8
CK_LEVEL_1
 10
-72.90802528526615
 20
13.86206896551716
 30
0.0
  0
SEQEND
  5
E13
  8
CK_LEVEL_1
  0
POLYLINE
  5
93
  8
CK_LEVEL_1
 66
     1
 10
0.0
 20
0.0
 30
0.0
 70
     1
  0
VERTEX
  5
1E7
  8
CK_LEVEL_1
 10
-89.2509552852661
 20
6.49297696551716
 30
0.0
 42
-1.0
  0
VERTEX
  5
1E8
  8
CK_LEVEL_1
 10
-89.2509552852661
 20
8.492976965517158
 30
0.0
  0
VERTEX
  5
1E9
  8
CK_LEVEL_1
 10
-44.00095528526616
 20
7.992976965517158
 30
0.0
  0
VERTEX
  5
1EA
  8
CK_LEVEL_1
 10
-44.00095528526616
 20
6.99297696551716
 30
0.0
  0
SEQEND
  5
E14
  8
CK_LEVEL_1
  0
POLYLINE
  5
94
  8
CK_LEVEL_1
 66
     1
 10
0.0
 20
0.0
 30
0.0
 70
     1
  0
VERTEX
  5
1EB
  8
CK_LEVEL_1
 10
-102.7831972852661
 20
13.86206896551716
 30
0.0
  0
VERTEX
  5
1EC
  8
CK_LEVEL_1
 10
-88.8456112852661
 20
13.86206896551716
 30
0.0
  0
VERTEX
  5
1ED
  8
CK_LEVEL_1
 10
-88.8456112852661
 20
26.53914096551718
 30
0.0
  0
VERTEX
  5
1EE
  8
CK_LEVEL_1
 10
-95.42596828526607
 20
26.53914096551718
 30
0.0
  0
SEQEND
  5
E15
  8
CK_LEVEL_1
  0
POLYLINE
  5
95
  8
CK_LEVEL_1
 66
     1
 10
0.0
 20
0.0
 30
0.0
 70
     1
  0
VERTEX
  5
1EF
  8
CK_LEVEL_1
 10
-110.5956112852662
 20
10.86206896551716
 30
0.0
  0
VERTEX
  5
1F0
  8
CK_LEVEL_1
 10
-108.5956112852661
 20
10.86206896551716
 30
0.0
  0
VERTEX
  5
1F1
  8
CK_LEVEL_1
 10
-108.5956112852661
 20
11.36206896551716
 30
0.0
  0
VERTEX
  5
1F2
  8
CK_LEVEL_1
 10
-107.1556112852661
 20
11.36206896551716
 30
0.0
  0
VERTEX
  5
1F3
  8
CK_LEVEL_1
 10
-107.1556112852661
 20
10.86206896551716
 30
0.0
  0
VERTEX
  5
1F4
  8
CK_LEVEL_1
 10
-88.5656112852661
 20
10.86206896551716
 30
0.0
  0
VERTEX
  5
1F5
  8
CK_LEVEL_1
 10
-88.5656112852661
 20
11.36206896551716
 30
0.0
  0
VERTEX
  5
1F6
  8
CK_LEVEL_1
 10
-87.12561128526612
 20
11.36206896551716
 30
0.0
  0
VERTEX
  5
1F7
  8
CK_LEVEL_1
 10
-87.12561128526612
 20
10.86206896551716
 30
0.0
  0
VERTEX
  5
1F8
  8
CK_LEVEL_1
 10
-68.53561128526616
 20
10.86206896551716
 30
0.0
  0
VERTEX
  5
1F9
  8
CK_LEVEL_1
 10
-68.53561128526616
 20
11.36206896551716
 30
0.0
  0
VERTEX
  5
1FA
  8
CK_LEVEL_1
 10
-67.09561128526616
 20
11.36206896551716
 30
0.0
  0
VERTEX
  5
1FB
  8
CK_LEVEL_1
 10
-67.09561128526616
 20
10.86206896551716
 30
0.0
  0
VERTEX
  5
1FC
  8
CK_LEVEL_1
 10
-65.09561128526616
 20
10.86206896551716
 30
0.0
  0
VERTEX
  5
1FD
  8
CK_LEVEL_1
 10
-65.09561128526616
 20
13.86206896551716
 30
0.0
  0
VERTEX
  5
1FE
  8
CK_LEVEL_1
 10
-70.59561128526616
 20
13.86206896551716
 30
0.0
  0
VERTEX
  5
1FF
  8
CK_LEVEL_1
 10
-86.84561128526612
 20
41.86206896551714
 30
0.0
  0
VERTEX
  5
200
  8
CK_LEVEL_1
 10
-88.8456112852661
 20
41.86206896551714
 30
0.0
  0
VERTEX
  5
201
  8
CK_LEVEL_1
 10
-105.0956112852661
 20
13.86206896551716
 30
0.0
  0
VERTEX
  5
202
  8
CK_LEVEL_1
 10
-110.5956112852662
 20
13.86206896551716
 30
0.0
  0
SEQEND
  5
E16
  8
CK_LEVEL_1
  0
POLYLINE
  5
96
  8
CK_LEVEL_1
 66
     1
 10
0.0
 20
0.0
 30
0.0
 70
     1
  0
VERTEX
  5
203
  8
CK_LEVEL_1
 10
-110.6849272852662
 20
6.542114965517161
 30
0.0
  0
VERTEX
  5
204
  8
CK_LEVEL_1
 10
-110.6849272852662
 20
8.04211496551716
 30
0.0
  0
VERTEX
  5
205
  8
CK_LEVEL_1
 10
-108.6849272852662
 20
8.04211496551716
 30
0.0
  0
VERTEX
  5
206
  8
CK_LEVEL_1
 10
-108.6849272852662
 20
7.542114965517159
 30
0.0
  0
VERTEX
  5
207
  8
CK_LEVEL_1
 10
-107.2449272852661
 20
7.542114965517159
 30
0.0
  0
VERTEX
  5
208
  8
CK_LEVEL_1
 10
-107.2449272852661
 20
8.04211496551716
 30
0.0
  0
VERTEX
  5
209
  8
CK_LEVEL_1
 10
-106.9949272852661
 20
8.04211496551716
 30
0.0
  0
VERTEX
  5
20A
  8
CK_LEVEL_1
 10
-106.5599272852661
 20
10.29211496551716
 30
0.0
  0
VERTEX
  5
20B
  8
CK_LEVEL_1
 10
-106.0599272852661
 20
10.29211496551716
 30
0.0
  0
VERTEX
  5
20C
  8
CK_LEVEL_1
 10
-106.0599272852661
 20
9.792114965517158
 30
0.0
  0
VERTEX
  5
20D
  8
CK_LEVEL_1
 10
-98.05992728526607
 20
9.792114965517158
 30
0.0
  0
VERTEX
  5
20E
  8
CK_LEVEL_1
 10
-98.05992728526607
 20
10.29211496551716
 30
0.0
  0
VERTEX
  5
20F
  8
CK_LEVEL_1
 10
-97.55992728526606
 20
10.29211496551716
 30
0.0
  0
VERTEX
  5
210
  8
CK_LEVEL_1
 10
-97.12492728526607
 20
8.04211496551716
 30
0.0
  0
VERTEX
  5
211
  8
CK_LEVEL_1
 10
-96.87492728526607
 20
8.04211496551716
 30
0.0
  0
VERTEX
  5
212
  8
CK_LEVEL_1
 10
-96.87492728526607
 20
7.542114965517159
 30
0.0
  0
VERTEX
  5
213
  8
CK_LEVEL_1
 10
-95.43492728526607
 20
7.542114965517159
 30
0.0
  0
VERTEX
  5
214
  8
CK_LEVEL_1
 10
-95.43492728526607
 20
8.04211496551716
 30
0.0
  0
VERTEX
  5
215
  8
CK_LEVEL_1
 10
-93.43492728526607
 20
8.04211496551716
 30
0.0
  0
VERTEX
  5
216
  8
CK_LEVEL_1
 10
-93.43492728526607
 20
6.542114965517161
 30
0.0
  0
SEQEND
  5
E17
  8
CK_LEVEL_1
  0
POLYLINE
  5
97
  8
CK_LEVEL_1
 66
     1
 10
0.0
 20
0.0
 30
0.0
 70
     1
  0
VERTEX
  5
217
  8
CK_LEVEL_1
 10
167.4906296850222
 20
81.18200187830296
 30
0.0
 42
0.4142135623730951
  0
VERTEX
  5
218
  8
CK_LEVEL_1
 10
167.1706296850222
 20
80.86200187830295
 30
0.0
 42
0.4142135623730951
  0
VERTEX
  5
219
  8
CK_LEVEL_1
 10
167.4906296850222
 20
80.54200187830295
 30
0.0
 42
0.4142135623730951
  0
VERTEX
  5
21A
  8
CK_LEVEL_1
 10
167.8106296850222
 20
80.86200187830295
 30
0.0
 42
0.4142135623730951
  0
SEQEND
  5
E18
  8
CK_LEVEL_1
  0
POLYLINE
  5
98
  8
CK_LEVEL_1
 66
     1
 10
0.0
 20
0.0
 30
0.0
 70
     1
  0
VERTEX
  5
21B
  8
CK_LEVEL_1
 10
166.634592126218
 20
83.36200187830296
 30
0.0
 42
0.2673458031354664
  0
VERTEX
  5
21C
  8
CK_LEVEL_1
 10
165.9859193021344
 20
82.98846378513662
 30
0.0
  0
VERTEX
  5
21D
  8
CK_LEVEL_1
 10
162.8629867819428
 20
77.60741082726805
 30
0.0
 42
0.5781012530963188
  0
VERTEX
  5
21E
  8
CK_LEVEL_1
 10
163.079211056637
 20
77.23192352499018
 30
0.0
  0
VERTEX
  5
21F
  8
CK_LEVEL_1
 10
171.9020483134077
 20
77.23192352499022
 30
0.0
 42
0.5781012530851956
  0
VERTEX
  5
220
  8
CK_LEVEL_1
 10
172.1182725881019
 20
77.6074108272681
 30
0.0
  0
VERTEX
  5
221
  8
CK_LEVEL_1
 10
168.9953400679105
 20
82.98846378513582
 30
0.0
 42
0.267345803135917
  0
VERTEX
  5
222
  8
CK_LEVEL_1
 10
168.3466672438269
 20
83.36200187830296
 30
0.0
  0
SEQEND
  5
E19
  8
CK_LEVEL_1
  0
POLYLINE
  5
99
  8
CK_LEVEL_1
 66
     1
 10
0.0
 20
0.0
 30
0.0
  0
VERTEX
  5
223
  8
CK_LEVEL_1
 10
171.9055360579297
 20
76.9819235249887
 30
0.0
  0
VERTEX
  5
224
  8
CK_LEVEL_1
 10
168.5628915185217
 20
82.73748918058084
 30
0.0
 42
0.2673458031359041
  0
VERTEX
  5
225
  8
CK_LEVEL_1
 10
168.3466672438275
 20
82.86200187830296
 30
0.0
  0
VERTEX
  5
226
  8
CK_LEVEL_1
 10
166.6345921262169
 20
82.86200187830296
 30
0.0
 42
0.2673458031354876
  0
VERTEX
  5
227
  8
CK_LEVEL_1
 10
166.4183678515227
 20
82.73748918058084
 30
0.0
  0
VERTEX
  5
228
  8
CK_LEVEL_1
 10
163.0753358651432
 20
76.9819235249899
 30
0.0
  0
SEQEND
  5
E1A
  8
CK_LEVEL_1
  0
POLYLINE
  5
9A
  8
CK_LEVEL_1
 66
     1
 10
0.0
 20
0.0
 30
0.0
  0
VERTEX
  5
229
  8
CK_LEVEL_1
 10
163.0724524455425
 20
76.9819235249902
 30
0.0
  0
VERTEX
  5
22A
  8
CK_LEVEL_1
 10
171.9057457707247
 20
76.98192352499026
 30
0.0
  0
SEQEND
  5
E1B
  8
CK_LEVEL_1
  0
POLYLINE
  5
9B
  8
CK_LEVEL_1
 66
     1
 10
0.0
 20
0.0
 30
0.0
 70
     1
  0
VERTEX
  5
22B
  8
CK_LEVEL_1
 10
182.803586206895
 20
53.94236677115953
 30
0.0
 42
0.4142135623730951
  0
VERTEX
  5
22C
  8
CK_LEVEL_1
 10
182.228586206895
 20
53.36736677115953
 30
0.0
 42
0.4142135623730951
  0
VERTEX
  5
22D
  8
CK_LEVEL_1
 10
182.803586206895
 20
52.79236677115952
 30
0.0
 42
0.4142135623730951
  0
VERTEX
  5
22E
  8
CK_LEVEL_1
 10
183.378586206895
 20
53.36736677115953
 30
0.0
 42
0.4142135623730951
  0
SEQEND
  5
E1C
  8
CK_LEVEL_1
  0
POLYLINE
  5
9C
  8
CK_LEVEL_1
 66
     1
 10
0.0
 20
0.0
 30
0.0
 70
     1
  0
VERTEX
  5
22F
  8
CK_LEVEL_1
 10
175.6497932068949
 20
68.67443877115957
 30
0.0
 42
0.4142135623730951
  0
VERTEX
  5
230
  8
CK_LEVEL_1
 10
175.5197932068949
 20
68.54443877115956
 30
0.0
 42
0.4142135623730951
  0
VERTEX
  5
231
  8
CK_LEVEL_1
 10
175.6497932068949
 20
68.41443877115957
 30
0.0
 42
0.4142135623730951
  0
VERTEX
  5
232
  8
CK_LEVEL_1
 10
175.7797932068949
 20
68.54443877115956
 30
0.0
 42
0.4142135623730951
  0
SEQEND
  5
E1D
  8
CK_LEVEL_1
  0
POLYLINE
  5
9D
  8
CK_LEVEL_1
 66
     1
 10
0.0
 20
0.0
 30
0.0
 70
     1
  0
VERTEX
  5
233
  8
CK_LEVEL_1
 10
168.4935862068947
 20
77.95407224767442
 30
0.0
  0
VERTEX
  5
234
  8
CK_LEVEL_1
 10
168.4935862068947
 20
69.79443877115958
 30
0.0
 42
0.4142135623734191
  0
VERTEX
  5
235
  8
CK_LEVEL_1
 10
168.7435862068947
 20
69.54443877115958
 30
0.0
  0
VERTEX
  5
236
  8
CK_LEVEL_1
 10
173.4790881759622
 20
69.54443877115958
 30
0.0
 42
0.5781012652363309
  0
VERTEX
  5
237
  8
CK_LEVEL_1
 10
173.6953124460791
 20
69.91992608132442
 30
0.0
  0
VERTEX
  5
238
  8
CK_LEVEL_1
 10
168.9598104770116
 20
78.07955955783925
 30
0.0
 42
0.7664327835817061
  0
SEQEND
  5
E1E
  8
CK_LEVEL_1
  0
POLYLINE
  5
9E
  8
CK_LEVEL_1
 66
     1
 10
0.0
 20
0.0
 30
0.0
 70
     1
  0
VERTEX
  5
239
  8
CK_LEVEL_1
 10
166.0273619367777
 20
78.07955955783925
 30
0.0
  0
VERTEX
  5
23A
  8
CK_LEVEL_1
 10
161.2918599677102
 20
69.91992608132442
 30
0.0
 42
0.5781012652370806
  0
VERTEX
  5
23B
  8
CK_LEVEL_1
 10
161.5080842378271
 20
69.54443877115958
 30
0.0
  0
VERTEX
  5
23C
  8
CK_LEVEL_1
 10
166.2435862068946
 20
69.54443877115958
 30
0.0
 42
0.4142135623731775
  0
VERTEX
  5
23D
  8
CK_LEVEL_1
 10
166.4935862068946
 20
69.79443877115958
 30
0.0
  0
VERTEX
  5
23E
  8
CK_LEVEL_1
 10
166.4935862068946
 20
77.95407224767442
 30
0.0
 42
0.766432783581653
  0
SEQEND
  5
E1F
  8
CK_LEVEL_1
  0
POLYLINE
  5
9F
  8
CK_LEVEL_1
 66
     1
 10
0.0
 20
0.0
 30
0.0
 70
     1
  0
VERTEX
  5
23F
  8
CK_LEVEL_1
 10
168.4935862068947
 20
55.11736677115953
 30
0.0
  0
VERTEX
  5
240
  8
CK_LEVEL_1
 10
168.4935862068947
 20
67.29443877115956
 30
0.0
 42
-0.4142135623739165
  0
VERTEX
  5
241
  8
CK_LEVEL_1
 10
168.7435862068947
 20
67.54443877115956
 30
0.0
  0
VERTEX
  5
242
  8
CK_LEVEL_1
 10
174.9299807628938
 20
67.54443877115956
 30
0.0
 42
-0.2673458076515929
  0
VERTEX
  5
243
  8
CK_LEVEL_1
 10
175.1462050397037
 20
67.41992606979203
 30
0.0
  0
VERTEX
  5
244
  8
CK_LEVEL_1
 10
182.2132554795442
 20
55.24285406979199
 30
0.0
 42
-0.578101247447448
  0
VERTEX
  5
245
  8
CK_LEVEL_1
 10
181.9970312027344
 20
54.86736677115953
 30
0.0
  0
VERTEX
  5
246
  8
CK_LEVEL_1
 10
168.7435862068947
 20
54.86736677115953
 30
0.0
 42
-0.4142135623738916
  0
SEQEND
  5
E20
  8
CK_LEVEL_1
  0
POLYLINE
  5
A0
  8
CK_LEVEL_1
 66
     1
 10
0.0
 20
0.0
 30
0.0
 70
     1
  0
VERTEX
  5
247
  8
CK_LEVEL_1
 10
188.2435862068951
 20
53.49736677115953
 30
0.0
 42
0.4142135623730951
  0
VERTEX
  5
248
  8
CK_LEVEL_1
 10
188.1135862068951
 20
53.36736677115953
 30
0.0
 42
0.4142135623730951
  0
VERTEX
  5
249
  8
CK_LEVEL_1
 10
188.2435862068951
 20
53.23736677115952
 30
0.0
 42
0.4142135623730951
  0
VERTEX
  5
24A
  8
CK_LEVEL_1
 10
188.3735862068951
 20
53.36736677115953
 30
0.0
 42
0.4142135623730951
  0
SEQEND
  5
E21
  8
CK_LEVEL_1
  0
POLYLINE
  5
A1
  8
CK_LEVEL_1
 66
     1
 10
0.0
 20
0.0
 30
0.0
 70
     1
  0
VERTEX
  5
24B
  8
CK_LEVEL_1
 10
167.4935862068946
 20
81.18736677115966
 30
0.0
 42
0.4142135623730951
  0
VERTEX
  5
24C
  8
CK_LEVEL_1
 10
167.1735862068946
 20
80.86736677115965
 30
0.0
 42
0.4142135623730951
  0
VERTEX
  5
24D
  8
CK_LEVEL_1
 10
167.4935862068946
 20
80.54736677115966
 30
0.0
 42
0.4142135623730951
  0
VERTEX
  5
24E
  8
CK_LEVEL_1
 10
167.8135862068947
 20
80.86736677115965
 30
0.0
 42
0.4142135623730951
  0
SEQEND
  5
E22
  8
CK_LEVEL_1
  0
POLYLINE
  5
A2
  8
CK_LEVEL_1
 66
     1
 10
0.0
 20
0.0
 30
0.0
 70
     1
  0
VERTEX
  5
24F
  8
CK_LEVEL_1
 10
171.617642319675
 20
67.36082821789259
 30
0.0
  0
VERTEX
  5
250
  8
CK_LEVEL_1
 10
174.4559435241802
 20
72.27691011127936
 30
0.0
 42
-0.5773502691860283
  0
VERTEX
  5
251
  8
CK_LEVEL_1
 10
174.9195531141886
 20
72.27691011127936
 30
0.0
  0
VERTEX
  5
252
  8
CK_LEVEL_1
 10
177.7578543186937
 20
67.36082821789259
 30
0.0
 42
-0.5773502691813766
  0
VERTEX
  5
253
  8
CK_LEVEL_1
 10
177.5260495236895
 20
66.95933053550716
 30
0.0
  0
VERTEX
  5
254
  8
CK_LEVEL_1
 10
171.8494471146793
 20
66.95933053550716
 30
0.0
 42
-0.5773502691973786
  0
SEQEND
  5
E23
  8
CK_LEVEL_1
  0
POLYLINE
  5
A3
  8
CK_LEVEL_1
 66
     1
 10
0.0
 20
0.0
 30
0.0
 70
     1
  0
VERTEX
  5
255
  8
CK_LEVEL_1
 10
177.8050537175701
 20
66.79094986040828
 30
0.0
  0
VERTEX
  5
256
  8
CK_LEVEL_1
 10
174.4396671681541
 20
72.59742806849643
 30
0.0
  0
VERTEX
  5
257
  8
CK_LEVEL_1
 10
174.4243557234007
 20
72.58872575335077
 30
0.0
  0
VERTEX
  5
258
  8
CK_LEVEL_1
 10
174.4093572065223
 20
72.57951300988067
 30
0.0
  0
VERTEX
  5
259
  8
CK_LEVEL_1
 10
174.3946844778334
 20
72.56979871395048
 30
0.0
  0
VERTEX
  5
25A
  8
CK_LEVEL_1
 10
174.3803503976486
 20
72.55959174142457
 30
0.0
  0
VERTEX
  5
25B
  8
CK_LEVEL_1
 10
174.3663678262824
 20
72.54890096816732
 30
0.0
  0
VERTEX
  5
25C
  8
CK_LEVEL_1
 10
174.3527496240494
 20
72.53773527004309
 30
0.0
  0
VERTEX
  5
25D
  8
CK_LEVEL_1
 10
174.3395086512639
 20
72.52610352291626
 30
0.0
  0
VERTEX
  5
25E
  8
CK_LEVEL_1
 10
174.3266577682406
 20
72.51401460265123
 30
0.0
  0
VERTEX
  5
25F
  8
CK_LEVEL_1
 10
174.314209835294
 20
72.50147738511234
 30
0.0
  0
VERTEX
  5
260
  8
CK_LEVEL_1
 10
174.3021777127386
 20
72.488500746164
 30
0.0
  0
VERTEX
  5
261
  8
CK_LEVEL_1
 10
174.2905742608889
 20
72.47509356167055
 30
0.0
  0
VERTEX
  5
262
  8
CK_LEVEL_1
 10
174.2794123400595
 20
72.46126470749638
 30
0.0
  0
VERTEX
  5
263
  8
CK_LEVEL_1
 10
174.2687048105648
 20
72.44702305950585
 30
0.0
  0
VERTEX
  5
264
  8
CK_LEVEL_1
 10
174.2584645327194
 20
72.43237749356337
 30
0.0
  0
VERTEX
  5
265
  8
CK_LEVEL_1
 10
174.2487043668377
 20
72.41733688553326
 30
0.0
  0
VERTEX
  5
266
  8
CK_LEVEL_1
 10
174.2394371732344
 20
72.40191011127995
 30
0.0
  0
VERTEX
  5
267
  8
CK_LEVEL_1
 10
173.2346243493731
 20
70.66152324825545
 30
0.0
  0
VERTEX
  5
268
  8
CK_LEVEL_1
 10
173.6673197367081
 20
69.93359967254348
 30
0.0
 42
-0.5781012652370806
  0
VERTEX
  5
269
  8
CK_LEVEL_1
 10
173.4510954665911
 20
69.55811236237864
 30
0.0
  0
VERTEX
  5
26A
  8
CK_LEVEL_1
 10
172.6017150352627
 20
69.56529215963788
 30
0.0
  0
VERTEX
  5
26B
  8
CK_LEVEL_1
 10
171.4415512241932
 20
67.55582949376374
 30
0.0
  0
VERTEX
  5
26C
  8
CK_LEVEL_1
 10
174.9019880535228
 20
67.55811236237862
 30
0.0
 42
-0.2673458076491258
  0
VERTEX
  5
26D
  8
CK_LEVEL_1
 10
175.1182123303326
 20
67.43359966101109
 30
0.0
  0
VERTEX
  5
26E
  8
CK_LEVEL_1
 10
175.5366163497169
 20
66.7093305355071
 30
0.0
  0
VERTEX
  5
26F
  8
CK_LEVEL_1
 10
177.5260495236907
 20
66.70933053550716
 30
0.0
  0
VERTEX
  5
270
  8
CK_LEVEL_1
 10
177.5447575543338
 20
66.70966809172774
 30
0.0
  0
VERTEX
  5
271
  8
CK_LEVEL_1
 10
177.5633704277661
 20
66.71067576552683
 30
0.0
  0
VERTEX
  5
272
  8
CK_LEVEL_1
 10
177.5818722414322
 20
66.71234606461152
 30
0.0
  0
VERTEX
  5
273
  8
CK_LEVEL_1
 10
177.6002470927764
 20
66.71467149668887
 30
0.0
  0
VERTEX
  5
274
  8
CK_LEVEL_1
 10
177.6184790792431
 20
66.71764456946588
 30
0.0
  0
VERTEX
  5
275
  8
CK_LEVEL_1
 10
177.6365522982769
 20
66.72125779064964
 30
0.0
  0
VERTEX
  5
276
  8
CK_LEVEL_1
 10
177.654450847322
 20
66.72550366794718
 30
0.0
  0
VERTEX
  5
277
  8
CK_LEVEL_1
 10
177.6721588238229
 20
66.73037470906556
 30
0.0
  0
VERTEX
  5
278
  8
CK_LEVEL_1
 10
177.6896603252241
 20
66.7358634217118
 30
0.0
  0
VERTEX
  5
279
  8
CK_LEVEL_1
 10
177.7069394489699
 20
66.74196231359298
 30
0.0
  0
VERTEX
  5
27A
  8
CK_LEVEL_1
 10
177.7239802925048
 20
66.74866389241615
 30
0.0
  0
VERTEX
  5
27B
  8
CK_LEVEL_1
 10
177.7407669532732
 20
66.75596066588832
 30
0.0
  0
VERTEX
  5
27C
  8
CK_LEVEL_1
 10
177.7572835287195
 20
66.76384514171659
 30
0.0
  0
VERTEX
  5
27D
  8
CK_LEVEL_1
 10
177.7735141162881
 20
66.77230982760797
 30
0.0
  0
VERTEX
  5
27E
  8
CK_LEVEL_1
 10
177.7894428134235
 20
66.7813472312695
 30
0.0
  0
SEQEND
  5
E24
  8
CK_LEVEL_1
  0
POLYLINE
  5
A4
  8
CK_LEVEL_1
 66
     1
 10
0.0
 20
0.0
 30
0.0
 70
     1
  0
VERTEX
  5
27F
  8
CK_LEVEL_1
 10
212.1577184369503
 20
67.35015822989361
 30
0.0
  0
VERTEX
  5
280
  8
CK_LEVEL_1
 10
209.3194172324451
 20
72.26624012328038
 30
0.0
 42
0.5773502691860283
  0
VERTEX
  5
281
  8
CK_LEVEL_1
 10
208.8558076424367
 20
72.26624012328038
 30
0.0
  0
VERTEX
  5
282
  8
CK_LEVEL_1
 10
206.0175064379316
 20
67.35015822989361
 30
0.0
 42
0.5773502691813766
  0
VERTEX
  5
283
  8
CK_LEVEL_1
 10
206.2493112329358
 20
66.94866054750818
 30
0.0
  0
VERTEX
  5
284
  8
CK_LEVEL_1
 10
211.925913641946
 20
66.94866054750818
 30
0.0
 42
0.5773502691973786
  0
SEQEND
  5
E25
  8
CK_LEVEL_1
  0
POLYLINE
  5
A5
  8
CK_LEVEL_1
 66
     1
 10
0.0
 20
0.0
 30
0.0
 70
     1
  0
VERTEX
  5
285
  8
CK_LEVEL_1
 10
205.4856308988875
 20
66.74796812973145
 30
0.0
  0
VERTEX
  5
286
  8
CK_LEVEL_1
 10
208.8510174483035
 20
72.5544463378196
 30
0.0
  0
VERTEX
  5
287
  8
CK_LEVEL_1
 10
208.866328893057
 20
72.54574402267394
 30
0.0
  0
VERTEX
  5
288
  8
CK_LEVEL_1
 10
208.8813274099354
 20
72.53653127920384
 30
0.0
  0
VERTEX
  5
289
  8
CK_LEVEL_1
 10
208.8960001386242
 20
72.52681698327363
 30
0.0
  0
VERTEX
  5
28A
  8
CK_LEVEL_1
 10
208.910334218809
 20
72.51661001074773
 30
0.0
  0
VERTEX
  5
28B
  8
CK_LEVEL_1
 10
208.9243167901752
 20
72.50591923749047
 30
0.0
  0
VERTEX
  5
28C
  8
CK_LEVEL_1
 10
208.9379349924083
 20
72.49475353936626
 30
0.0
  0
VERTEX
  5
28D
  8
CK_LEVEL_1
 10
208.9511759651937
 20
72.48312179223944
 30
0.0
  0
VERTEX
  5
28E
  8
CK_LEVEL_1
 10
208.964026848217
 20
72.4710328719744
 30
0.0
  0
VERTEX
  5
28F
  8
CK_LEVEL_1
 10
208.9764747811636
 20
72.45849565443552
 30
0.0
  0
VERTEX
  5
290
  8
CK_LEVEL_1
 10
208.988506903719
 20
72.44551901548718
 30
0.0
  0
VERTEX
  5
291
  8
CK_LEVEL_1
 10
209.0001103555687
 20
72.43211183099373
 30
0.0
  0
VERTEX
  5
292
  8
CK_LEVEL_1
 10
209.0112722763981
 20
72.41828297681955
 30
0.0
  0
VERTEX
  5
293
  8
CK_LEVEL_1
 10
209.0219798058928
 20
72.40404132882904
 30
0.0
  0
VERTEX
  5
294
  8
CK_LEVEL_1
 10
209.0322200837383
 20
72.38939576288654
 30
0.0
  0
VERTEX
  5
295
  8
CK_LEVEL_1
 10
209.0419802496199
 20
72.37435515485645
 30
0.0
  0
VERTEX
  5
296
  8
CK_LEVEL_1
 10
209.0512474432232
 20
72.35892838060312
 30
0.0
  0
VERTEX
  5
297
  8
CK_LEVEL_1
 10
210.0560602670845
 20
70.61854151757862
 30
0.0
  0
VERTEX
  5
298
  8
CK_LEVEL_1
 10
209.6233648797495
 20
69.89061794186665
 30
0.0
 42
0.5781012652370806
  0
VERTEX
  5
299
  8
CK_LEVEL_1
 10
209.8395891498665
 20
69.51513063170181
 30
0.0
  0
VERTEX
  5
29A
  8
CK_LEVEL_1
 10
210.6889695811949
 20
69.52231042896105
 30
0.0
  0
VERTEX
  5
29B
  8
CK_LEVEL_1
 10
211.8491333922644
 20
67.51284776308691
 30
0.0
  0
VERTEX
  5
29C
  8
CK_LEVEL_1
 10
208.3886965629348
 20
67.5151306317018
 30
0.0
 42
0.2673458076491258
  0
VERTEX
  5
29D
  8
CK_LEVEL_1
 10
208.172472286125
 20
67.39061793033426
 30
0.0
  0
VERTEX
  5
29E
  8
CK_LEVEL_1
 10
207.7540682667407
 20
66.66634880483028
 30
0.0
  0
VERTEX
  5
29F
  8
CK_LEVEL_1
 10
205.7646350927669
 20
66.66634880483033
 30
0.0
  0
VERTEX
  5
2A0
  8
CK_LEVEL_1
 10
205.7459270621239
 20
66.66668636105089
 30
0.0
  0
VERTEX
  5
2A1
  8
CK_LEVEL_1
 10
205.7273141886915
 20
66.66769403484999
 30
0.0
  0
VERTEX
  5
2A2
  8
CK_LEVEL_1
 10
205.7088123750254
 20
66.66936433393468
 30
0.0
  0
VERTEX
  5
2A3
  8
CK_LEVEL_1
 10
205.6904375236812
 20
66.67168976601202
 30
0.0
  0
VERTEX
  5
2A4
  8
CK_LEVEL_1
 10
205.6722055372145
 20
66.67466283878903
 30
0.0
  0
VERTEX
  5
2A5
  8
CK_LEVEL_1
 10
205.6541323181807
 20
66.6782760599728
 30
0.0
  0
VERTEX
  5
2A6
  8
CK_LEVEL_1
 10
205.6362337691356
 20
66.68252193727034
 30
0.0
  0
VERTEX
  5
2A7
  8
CK_LEVEL_1
 10
205.6185257926347
 20
66.68739297838873
 30
0.0
  0
VERTEX
  5
2A8
  8
CK_LEVEL_1
 10
205.6010242912336
 20
66.69288169103498
 30
0.0
  0
VERTEX
  5
2A9
  8
CK_LEVEL_1
 10
205.5837451674877
 20
66.69898058291616
 30
0.0
  0
VERTEX
  5
2AA
  8
CK_LEVEL_1
 10
205.5667043239528
 20
66.70568216173933
 30
0.0
  0
VERTEX
  5
2AB
  8
CK_LEVEL_1
 10
205.5499176631845
 20
66.71297893521151
 30
0.0
  0
VERTEX
  5
2AC
  8
CK_LEVEL_1
 10
205.5334010877382
 20
66.72086341103977
 30
0.0
  0
VERTEX
  5
2AD
  8
CK_LEVEL_1
 10
205.5171705001695
 20
66.72932809693114
 30
0.0
  0
VERTEX
  5
2AE
  8
CK_LEVEL_1
 10
205.5012418030341
 20
66.73836550059269
 30
0.0
  0
SEQEND
  5
E26
  8
CK_LEVEL_1
  0
POLYLINE
  5
A6
  8
CK_LEVEL_1
 66
     1
 10
0.0
 20
0.0
 30
0.0
  0
VERTEX
  5
2AF
  8
CK_LEVEL_1
 10
212.1489480907214
 20
67.54443877115956
 30
0.0
  0
VERTEX
  5
2B0
  8
CK_LEVEL_1
 10
208.9577566451009
 20
67.54443877115956
 30
0.0
 42
0.2673458076491258
  0
VERTEX
  5
2B1
  8
CK_LEVEL_1
 10
208.7415323682911
 20
67.41992606979203
 30
0.0
  0
VERTEX
  5
2B2
  8
CK_LEVEL_1
 10
208.3229407867928
 20
66.69866054750801
 30
0.0
  0
SEQEND
  5
E27
  8
CK_LEVEL_1
  0
POLYLINE
  5
A7
  8
CK_LEVEL_1
 66
     1
 10
0.0
 20
0.0
 30
0.0
 70
     1
  0
VERTEX
  5
2B3
  8
CK_LEVEL_1
 10
201.0058490776604
 20
53.94236677115953
 30
0.0
 42
0.4142135623730951
  0
VERTEX
  5
2B4
  8
CK_LEVEL_1
 10
200.4308490776604
 20
53.36736677115953
 30
0.0
 42
0.4142135623730951
  0
VERTEX
  5
2B5
  8
CK_LEVEL_1
 10
201.0058490776604
 20
52.79236677115952
 30
0.0
 42
0.4142135623730951
  0
VERTEX
  5
2B6
  8
CK_LEVEL_1
 10
201.5808490776604
 20
53.36736677115953
 30
0.0
 42
0.4142135623730951
  0
SEQEND
  5
E28
  8
CK_LEVEL_1
  0
POLYLINE
  5
A8
  8
CK_LEVEL_1
 66
     1
 10
0.0
 20
0.0
 30
0.0
 70
     1
  0
VERTEX
  5
2B7
  8
CK_LEVEL_1
 10
231.6258490776607
 20
53.94236677115953
 30
0.0
 42
0.4142135623730951
  0
VERTEX
  5
2B8
  8
CK_LEVEL_1
 10
231.0508490776606
 20
53.36736677115953
 30
0.0
 42
0.4142135623730951
  0
VERTEX
  5
2B9
  8
CK_LEVEL_1
 10
231.6258490776607
 20
52.79236677115952
 30
0.0
 42
0.4142135623730951
  0
VERTEX
  5
2BA
  8
CK_LEVEL_1
 10
232.2008490776607
 20
53.36736677115953
 30
0.0
 42
0.4142135623730951
  0
SEQEND
  5
E29
  8
CK_LEVEL_1
  0
POLYLINE
  5
A9
  8
CK_LEVEL_1
 66
     1
 10
0.0
 20
0.0
 30
0.0
 70
     1
  0
VERTEX
  5
2BB
  8
CK_LEVEL_1
 10
224.4720560776606
 20
68.67443877115957
 30
0.0
 42
0.4142135623730951
  0
VERTEX
  5
2BC
  8
CK_LEVEL_1
 10
224.3420560776606
 20
68.54443877115956
 30
0.0
 42
0.4142135623730951
  0
VERTEX
  5
2BD
  8
CK_LEVEL_1
 10
224.4720560776606
 20
68.41443877115957
 30
0.0
 42
0.4142135623730951
  0
VERTEX
  5
2BE
  8
CK_LEVEL_1
 10
224.6020560776606
 20
68.54443877115956
 30
0.0
 42
0.4142135623730951
  0
SEQEND
  5
E2A
  8
CK_LEVEL_1
  0
POLYLINE
  5
AA
  8
CK_LEVEL_1
 66
     1
 10
0.0
 20
0.0
 30
0.0
 70
     1
  0
VERTEX
  5
2BF
  8
CK_LEVEL_1
 10
195.5658490776603
 20
53.49736677115953
 30
0.0
 42
0.4142135623730951
  0
VERTEX
  5
2C0
  8
CK_LEVEL_1
 10
195.4358490776602
 20
53.36736677115953
 30
0.0
 42
0.4142135623730951
  0
VERTEX
  5
2C1
  8
CK_LEVEL_1
 10
195.5658490776603
 20
53.23736677115952
 30
0.0
 42
0.4142135623730951
  0
VERTEX
  5
2C2
  8
CK_LEVEL_1
 10
195.6958490776603
 20
53.36736677115953
 30
0.0
 42
0.4142135623730951
  0
SEQEND
  5
E2B
  8
CK_LEVEL_1
  0
POLYLINE
  5
AB
  8
CK_LEVEL_1
 66
     1
 10
0.0
 20
0.0
 30
0.0
 70
     1
  0
VERTEX
  5
2C3
  8
CK_LEVEL_1
 10
208.1596420776605
 20
68.67443877115957
 30
0.0
 42
0.4142135623730951
  0
VERTEX
  5
2C4
  8
CK_LEVEL_1
 10
208.0296420776605
 20
68.54443877115956
 30
0.0
 42
0.4142135623730951
  0
VERTEX
  5
2C5
  8
CK_LEVEL_1
 10
208.1596420776605
 20
68.41443877115957
 30
0.0
 42
0.4142135623730951
  0
VERTEX
  5
2C6
  8
CK_LEVEL_1
 10
208.2896420776605
 20
68.54443877115956
 30
0.0
 42
0.4142135623730951
  0
SEQEND
  5
E2C
  8
CK_LEVEL_1
  0
POLYLINE
  5
AC
  8
CK_LEVEL_1
 66
     1
 10
0.0
 20
0.0
 30
0.0
 70
     1
  0
VERTEX
  5
2C7
  8
CK_LEVEL_1
 10
217.3158490776606
 20
77.95407224767442
 30
0.0
  0
VERTEX
  5
2C8
  8
CK_LEVEL_1
 10
217.3158490776606
 20
69.79443877115958
 30
0.0
 42
0.4142135623734191
  0
VERTEX
  5
2C9
  8
CK_LEVEL_1
 10
217.5658490776606
 20
69.54443877115958
 30
0.0
  0
VERTEX
  5
2CA
  8
CK_LEVEL_1
 10
222.301351046728
 20
69.54443877115958
 30
0.0
 42
0.5781012652363309
  0
VERTEX
  5
2CB
  8
CK_LEVEL_1
 10
222.5175753168449
 20
69.91992608132442
 30
0.0
  0
VERTEX
  5
2CC
  8
CK_LEVEL_1
 10
217.7820733477775
 20
78.07955955783925
 30
0.0
 42
0.7664327835817061
  0
SEQEND
  5
E2D
  8
CK_LEVEL_1
  0
POLYLINE
  5
AD
  8
CK_LEVEL_1
 66
     1
 10
0.0
 20
0.0
 30
0.0
 70
     1
  0
VERTEX
  5
2CD
  8
CK_LEVEL_1
 10
214.8496248075436
 20
78.07955955783925
 30
0.0
  0
VERTEX
  5
2CE
  8
CK_LEVEL_1
 10
210.1141228384762
 20
69.91992608132442
 30
0.0
 42
0.5781012652370806
  0
VERTEX
  5
2CF
  8
CK_LEVEL_1
 10
210.3303471085931
 20
69.54443877115958
 30
0.0
  0
VERTEX
  5
2D0
  8
CK_LEVEL_1
 10
215.0658490776605
 20
69.54443877115958
 30
0.0
 42
0.4142135623731775
  0
VERTEX
  5
2D1
  8
CK_LEVEL_1
 10
215.3158490776606
 20
69.79443877115958
 30
0.0
  0
VERTEX
  5
2D2
  8
CK_LEVEL_1
 10
215.3158490776606
 20
77.95407224767442
 30
0.0
 42
0.766432783581653
  0
SEQEND
  5
E2E
  8
CK_LEVEL_1
  0
POLYLINE
  5
AE
  8
CK_LEVEL_1
 66
     1
 10
0.0
 20
0.0
 30
0.0
 70
     1
  0
VERTEX
  5
2D3
  8
CK_LEVEL_1
 10
217.3158490776606
 20
55.11736677115953
 30
0.0
  0
VERTEX
  5
2D4
  8
CK_LEVEL_1
 10
217.3158490776606
 20
67.29443877115956
 30
0.0
 42
-0.4142135623739165
  0
VERTEX
  5
2D5
  8
CK_LEVEL_1
 10
217.5658490776606
 20
67.54443877115956
 30
0.0
  0
VERTEX
  5
2D6
  8
CK_LEVEL_1
 10
223.7522436336596
 20
67.54443877115956
 30
0.0
 42
-0.2673458076515929
  0
VERTEX
  5
2D7
  8
CK_LEVEL_1
 10
223.9684679104695
 20
67.41992606979203
 30
0.0
  0
VERTEX
  5
2D8
  8
CK_LEVEL_1
 10
231.0355183503098
 20
55.24285406979199
 30
0.0
 42
-0.578101247447448
  0
VERTEX
  5
2D9
  8
CK_LEVEL_1
 10
230.8192940735
 20
54.86736677115953
 30
0.0
  0
VERTEX
  5
2DA
  8
CK_LEVEL_1
 10
217.5658490776606
 20
54.86736677115953
 30
0.0
 42
-0.4142135623738916
  0
SEQEND
  5
E2F
  8
CK_LEVEL_1
  0
POLYLINE
  5
AF
  8
CK_LEVEL_1
 66
     1
 10
0.0
 20
0.0
 30
0.0
 70
     1
  0
VERTEX
  5
2DB
  8
CK_LEVEL_1
 10
208.6632302448517
 20
67.41992606979203
 30
0.0
  0
VERTEX
  5
2DC
  8
CK_LEVEL_1
 10
201.5961798050112
 20
55.242854069792
 30
0.0
 42
0.578101247447213
  0
VERTEX
  5
2DD
  8
CK_LEVEL_1
 10
201.812404081821
 20
54.86736677115953
 30
0.0
  0
VERTEX
  5
2DE
  8
CK_LEVEL_1
 10
215.0658490776605
 20
54.86736677115953
 30
0.0
 42
0.4142135623732166
  0
VERTEX
  5
2DF
  8
CK_LEVEL_1
 10
215.3158490776606
 20
55.11736677115953
 30
0.0
  0
VERTEX
  5
2E0
  8
CK_LEVEL_1
 10
215.3158490776606
 20
67.29443877115956
 30
0.0
 42
0.4142135623734475
  0
VERTEX
  5
2E1
  8
CK_LEVEL_1
 10
215.0658490776605
 20
67.54443877115956
 30
0.0
  0
VERTEX
  5
2E2
  8
CK_LEVEL_1
 10
208.8794545216615
 20
67.54443877115956
 30
0.0
 42
0.2673458076491258
  0
SEQEND
  5
E30
  8
CK_LEVEL_1
  0
POLYLINE
  5
B0
  8
CK_LEVEL_1
 66
     1
 10
0.0
 20
0.0
 30
0.0
 70
     1
  0
VERTEX
  5
2E3
  8
CK_LEVEL_1
 10
198.9218866364656
 20
54.86736677115953
 30
0.0
  0
VERTEX
  5
2E4
  8
CK_LEVEL_1
 10
193.8158490776602
 20
54.86736677115953
 30
0.0
 42
0.414213562373068
  0
VERTEX
  5
2E5
  8
CK_LEVEL_1
 10
193.5658490776602
 20
54.61736677115953
 30
0.0
  0
VERTEX
  5
2E6
  8
CK_LEVEL_1
 10
193.5658490776602
 20
52.11736677115952
 30
0.0
 42
0.4142135623730924
  0
VERTEX
  5
2E7
  8
CK_LEVEL_1
 10
193.8158490776602
 20
51.86736677115952
 30
0.0
  0
VERTEX
  5
2E8
  8
CK_LEVEL_1
 10
195.5658490776603
 20
51.86736677115952
 30
0.0
  0
VERTEX
  5
2E9
  8
CK_LEVEL_1
 10
195.5658490776603
 20
52.19059007586289
 30
0.0
 42
-1.0
  0
VERTEX
  5
2EA
  8
CK_LEVEL_1
 10
195.7426257729569
 20
52.36736677115953
 30
0.0
  0
VERTEX
  5
2EB
  8
CK_LEVEL_1
 10
196.8290723823636
 20
52.36736677115953
 30
0.0
 42
-1.0
  0
VERTEX
  5
2EC
  8
CK_LEVEL_1
 10
197.0058490776603
 20
52.19059007586289
 30
0.0
  0
VERTEX
  5
2ED
  8
CK_LEVEL_1
 10
197.0058490776603
 20
51.86736677115952
 30
0.0
  0
VERTEX
  5
2EE
  8
CK_LEVEL_1
 10
215.5958490776606
 20
51.86736677115952
 30
0.0
  0
VERTEX
  5
2EF
  8
CK_LEVEL_1
 10
215.5958490776606
 20
52.19059007586289
 30
0.0
 42
-1.0
  0
VERTEX
  5
2F0
  8
CK_LEVEL_1
 10
215.7726257729572
 20
52.36736677115953
 30
0.0
  0
VERTEX
  5
2F1
  8
CK_LEVEL_1
 10
216.8590723823639
 20
52.36736677115953
 30
0.0
 42
-1.0
  0
VERTEX
  5
2F2
  8
CK_LEVEL_1
 10
217.0358490776606
 20
52.19059007586289
 30
0.0
  0
VERTEX
  5
2F3
  8
CK_LEVEL_1
 10
217.0358490776606
 20
51.86736677115952
 30
0.0
  0
VERTEX
  5
2F4
  8
CK_LEVEL_1
 10
235.6258490776607
 20
51.86736677115952
 30
0.0
  0
VERTEX
  5
2F5
  8
CK_LEVEL_1
 10
235.6258490776607
 20
52.19059007586289
 30
0.0
 42
-1.0
  0
VERTEX
  5
2F6
  8
CK_LEVEL_1
 10
235.8026257729573
 20
52.36736677115953
 30
0.0
  0
VERTEX
  5
2F7
  8
CK_LEVEL_1
 10
236.889072382364
 20
52.36736677115953
 30
0.0
 42
-1.0
  0
VERTEX
  5
2F8
  8
CK_LEVEL_1
 10
237.0658490776607
 20
52.19059007586289
 30
0.0
  0
VERTEX
  5
2F9
  8
CK_LEVEL_1
 10
237.0658490776607
 20
51.86736677115952
 30
0.0
  0
VERTEX
  5
2FA
  8
CK_LEVEL_1
 10
238.8158490776607
 20
51.86736677115952
 30
0.0
 42
0.4142135623711019
  0
VERTEX
  5
2FB
  8
CK_LEVEL_1
 10
239.0658490776607
 20
52.11736677115952
 30
0.0
  0
VERTEX
  5
2FC
  8
CK_LEVEL_1
 10
239.0658490776607
 20
54.61736677115953
 30
0.0
 42
0.4142135623717103
  0
VERTEX
  5
2FD
  8
CK_LEVEL_1
 10
238.8158490776607
 20
54.86736677115953
 30
0.0
  0
VERTEX
  5
2FE
  8
CK_LEVEL_1
 10
233.7098115188554
 20
54.86736677115953
 30
0.0
 42
-0.2673458031353387
  0
VERTEX
  5
2FF
  8
CK_LEVEL_1
 10
233.4935872441612
 20
54.99187946888166
 30
0.0
  0
VERTEX
  5
300
  8
CK_LEVEL_1
 10
217.38811091116
 20
82.74285407343754
 30
0.0
 42
0.2673458031359041
  0
VERTEX
  5
301
  8
CK_LEVEL_1
 10
217.1718866364658
 20
82.86736677115967
 30
0.0
  0
VERTEX
  5
302
  8
CK_LEVEL_1
 10
215.4598115188553
 20
82.86736677115967
 30
0.0
 42
0.2673458031354876
  0
VERTEX
  5
303
  8
CK_LEVEL_1
 10
215.2435872441611
 20
82.74285407343754
 30
0.0
  0
VERTEX
  5
304
  8
CK_LEVEL_1
 10
199.1381109111598
 20
54.99187946888166
 30
0.0
 42
-0.267345803134228
  0
SEQEND
  5
E31
  8
CK_LEVEL_1
  0
POLYLINE
  5
B1
  8
CK_LEVEL_1
 66
     1
 10
0.0
 20
0.0
 30
0.0
 70
     1
  0
VERTEX
  5
305
  8
CK_LEVEL_1
 10
237.0658490776607
 20
53.49736677115953
 30
0.0
 42
0.4142135623730951
  0
VERTEX
  5
306
  8
CK_LEVEL_1
 10
236.9358490776607
 20
53.36736677115953
 30
0.0
 42
0.4142135623730951
  0
VERTEX
  5
307
  8
CK_LEVEL_1
 10
237.0658490776607
 20
53.23736677115952
 30
0.0
 42
0.4142135623730951
  0
VERTEX
  5
308
  8
CK_LEVEL_1
 10
237.1958490776607
 20
53.36736677115953
 30
0.0
 42
0.4142135623730951
  0
SEQEND
  5
E32
  8
CK_LEVEL_1
  0
POLYLINE
  5
B2
  8
CK_LEVEL_1
 66
     1
 10
0.0
 20
0.0
 30
0.0
 70
     1
  0
VERTEX
  5
309
  8
CK_LEVEL_1
 10
216.3158490776606
 20
81.18736677115966
 30
0.0
 42
0.4142135623730951
  0
VERTEX
  5
30A
  8
CK_LEVEL_1
 10
215.9958490776606
 20
80.86736677115965
 30
0.0
 42
0.4142135623730951
  0
VERTEX
  5
30B
  8
CK_LEVEL_1
 10
216.3158490776606
 20
80.54736677115966
 30
0.0
 42
0.4142135623730951
  0
VERTEX
  5
30C
  8
CK_LEVEL_1
 10
216.6358490776606
 20
80.86736677115965
 30
0.0
 42
0.4142135623730951
  0
SEQEND
  5
E33
  8
CK_LEVEL_1
  0
POLYLINE
  5
B3
  8
CK_LEVEL_1
 66
     1
 10
0.0
 20
0.0
 30
0.0
 70
     1
  0
VERTEX
  5
30D
  8
CK_LEVEL_1
 10
200.9931207217419
 20
53.94236677115953
 30
0.0
 42
0.4142135623730951
  0
VERTEX
  5
30E
  8
CK_LEVEL_1
 10
200.4181207217419
 20
53.36736677115953
 30
0.0
 42
0.4142135623730951
  0
VERTEX
  5
30F
  8
CK_LEVEL_1
 10
200.9931207217419
 20
52.79236677115952
 30
0.0
 42
0.4142135623730951
  0
VERTEX
  5
310
  8
CK_LEVEL_1
 10
201.568120721742
 20
53.36736677115953
 30
0.0
 42
0.4142135623730951
  0
SEQEND
  5
E34
  8
CK_LEVEL_1
  0
POLYLINE
  5
B4
  8
CK_LEVEL_1
 66
     1
 10
0.0
 20
0.0
 30
0.0
 70
     1
  0
VERTEX
  5
311
  8
CK_LEVEL_1
 10
204.9641706435226
 20
52.18651665578068
 30
0.0
  0
VERTEX
  5
312
  8
CK_LEVEL_1
 10
201.3559030009764
 20
58.43621953997742
 30
0.0
 42
0.5773502691860283
  0
VERTEX
  5
313
  8
CK_LEVEL_1
 10
200.7665266938577
 20
58.43621953997742
 30
0.0
  0
VERTEX
  5
314
  8
CK_LEVEL_1
 10
197.1582590513116
 20
52.18651665578068
 30
0.0
 42
0.5773502691813766
  0
VERTEX
  5
315
  8
CK_LEVEL_1
 10
197.4529472048709
 20
51.67610180142726
 30
0.0
  0
VERTEX
  5
316
  8
CK_LEVEL_1
 10
204.6694824899632
 20
51.67610180142726
 30
0.0
 42
0.5773502691973786
  0
SEQEND
  5
E35
  8
CK_LEVEL_1
  0
POLYLINE
  5
B5
  8
CK_LEVEL_1
 66
     1
 10
0.0
 20
0.0
 30
0.0
 70
     1
  0
VERTEX
  5
317
  8
CK_LEVEL_1
 10
201.3286768226141
 20
58.79319554410873
 30
0.0
  0
VERTEX
  5
318
  8
CK_LEVEL_1
 10
199.1253825552413
 20
54.99187946888166
 30
0.0
 42
-0.267345803134228
  0
VERTEX
  5
319
  8
CK_LEVEL_1
 10
198.9091582805471
 20
54.86736677115953
 30
0.0
  0
VERTEX
  5
31A
  8
CK_LEVEL_1
 10
198.4211791975541
 20
54.87395851497512
 30
0.0
  0
VERTEX
  5
31B
  8
CK_LEVEL_1
 10
196.9417527003645
 20
52.31151665577907
 30
0.0
  0
VERTEX
  5
31C
  8
CK_LEVEL_1
 10
196.9345054449337
 20
52.29859401442851
 30
0.0
  0
VERTEX
  5
31D
  8
CK_LEVEL_1
 10
196.9276078027266
 20
52.28554145853027
 30
0.0
  0
VERTEX
  5
31E
  8
CK_LEVEL_1
 10
196.9210595566249
 20
52.27236549859003
 30
0.0
  0
VERTEX
  5
31F
  8
CK_LEVEL_1
 10
196.9148604895108
 20
52.25907264511352
 30
0.0
  0
VERTEX
  5
320
  8
CK_LEVEL_1
 10
196.9090103842661
 20
52.24566940860642
 30
0.0
  0
VERTEX
  5
321
  8
CK_LEVEL_1
 10
196.9035090237727
 20
52.23216229957444
 30
0.0
  0
VERTEX
  5
322
  8
CK_LEVEL_1
 10
196.8983561909128
 20
52.21855782852327
 30
0.0
  0
VERTEX
  5
323
  8
CK_LEVEL_1
 10
196.8935516685681
 20
52.20486250595863
 30
0.0
  0
VERTEX
  5
324
  8
CK_LEVEL_1
 10
196.8890952396207
 20
52.19108284238621
 30
0.0
  0
VERTEX
  5
325
  8
CK_LEVEL_1
 10
196.8849866869525
 20
52.17722534831172
 30
0.0
  0
VERTEX
  5
326
  8
CK_LEVEL_1
 10
196.8812257934454
 20
52.16329653424086
 30
0.0
  0
VERTEX
  5
327
  8
CK_LEVEL_1
 10
196.8778123419814
 20
52.14930291067934
 30
0.0
  0
VERTEX
  5
328
  8
CK_LEVEL_1
 10
196.8747461154425
 20
52.13525098813284
 30
0.0
  0
VERTEX
  5
329
  8
CK_LEVEL_1
 10
196.8720268967107
 20
52.12114727710708
 30
0.0
  0
VERTEX
  5
32A
  8
CK_LEVEL_1
 10
196.8696544686677
 20
52.10699828810777
 30
0.0
  0
VERTEX
  5
32B
  8
CK_LEVEL_1
 10
196.8676286141957
 20
52.09281053164059
 30
0.0
  0
VERTEX
  5
32C
  8
CK_LEVEL_1
 10
196.8659491161766
 20
52.07859051821125
 30
0.0
  0
VERTEX
  5
32D
  8
CK_LEVEL_1
 10
196.8646157574922
 20
52.06434475832546
 30
0.0
  0
VERTEX
  5
32E
  8
CK_LEVEL_1
 10
196.8636283210247
 20
52.05007976248892
 30
0.0
  0
VERTEX
  5
32F
  8
CK_LEVEL_1
 10
196.8629865896558
 20
52.03580204120733
 30
0.0
  0
VERTEX
  5
330
  8
CK_LEVEL_1
 10
196.8626903462676
 20
52.0215181049864
 30
0.0
  0
VERTEX
  5
331
  8
CK_LEVEL_1
 10
196.8627393737421
 20
52.00723446433182
 30
0.0
  0
VERTEX
  5
332
  8
CK_LEVEL_1
 10
196.8631334549611
 20
51.99295762974929
 30
0.0
  0
VERTEX
  5
333
  8
CK_LEVEL_1
 10
196.8638723728066
 20
51.97869411174453
 30
0.0
  0
VERTEX
  5
334
  8
CK_LEVEL_1
 10
196.8649559101607
 20
51.96445042082323
 30
0.0
  0
VERTEX
  5
335
  8
CK_LEVEL_1
 10
196.8663838499051
 20
51.9502330674911
 30
0.0
  0
VERTEX
  5
336
  8
CK_LEVEL_1
 10
196.8681559749219
 20
51.93604856225383
 30
0.0
  0
VERTEX
  5
337
  8
CK_LEVEL_1
 10
196.8702720680931
 20
51.92190341561712
 30
0.0
  0
VERTEX
  5
338
  8
CK_LEVEL_1
 10
196.8727319123005
 20
51.9078041380867
 30
0.0
  0
VERTEX
  5
339
  8
CK_LEVEL_1
 10
196.8755352904262
 20
51.89375724016824
 30
0.0
  0
VERTEX
  5
33A
  8
CK_LEVEL_1
 10
196.8786819853521
 20
51.87976923236747
 30
0.0
  0
VERTEX
  5
33B
  8
CK_LEVEL_1
 10
196.8821717799601
 20
51.86584662519006
 30
0.0
  0
VERTEX
  5
33C
  8
CK_LEVEL_1
 10
205.239573443947
 20
51.86198909200425
 30
0.0
  0
VERTEX
  5
33D
  8
CK_LEVEL_1
 10
205.2431106014557
 20
51.87545691502028
 30
0.0
  0
VERTEX
  5
33E
  8
CK_LEVEL_1
 10
205.2463329758083
 20
51.88901795291588
 30
0.0
  0
VERTEX
  5
33F
  8
CK_LEVEL_1
 10
205.2492373506651
 20
51.90266662557955
 30
0.0
  0
VERTEX
  5
340
  8
CK_LEVEL_1
 10
205.2518205096866
 20
51.91639735289981
 30
0.0
  0
VERTEX
  5
341
  8
CK_LEVEL_1
 10
205.2540792365331
 20
51.93020455476517
 30
0.0
  0
VERTEX
  5
342
  8
CK_LEVEL_1
 10
205.2560103148653
 20
51.94408265106412
 30
0.0
  0
VERTEX
  5
343
  8
CK_LEVEL_1
 10
205.2576105283433
 20
51.95802606168519
 30
0.0
  0
VERTEX
  5
344
  8
CK_LEVEL_1
 10
205.2588766606277
 20
51.97202920651686
 30
0.0
  0
VERTEX
  5
345
  8
CK_LEVEL_1
 10
205.259805495379
 20
51.98608650544767
 30
0.0
  0
VERTEX
  5
346
  8
CK_LEVEL_1
 10
205.2603938162574
 20
52.00019237836611
 30
0.0
  0
VERTEX
  5
347
  8
CK_LEVEL_1
 10
205.2606384069235
 20
52.01434124516068
 30
0.0
  0
VERTEX
  5
348
  8
CK_LEVEL_1
 10
205.2605360510377
 20
52.0285275257199
 30
0.0
  0
VERTEX
  5
349
  8
CK_LEVEL_1
 10
205.2600835322604
 20
52.04274563993228
 30
0.0
  0
VERTEX
  5
34A
  8
CK_LEVEL_1
 10
205.2592776342519
 20
52.05699000768632
 30
0.0
  0
VERTEX
  5
34B
  8
CK_LEVEL_1
 10
205.2581151406728
 20
52.07125504887053
 30
0.0
  0
VERTEX
  5
34C
  8
CK_LEVEL_1
 10
205.2565928351835
 20
52.08553518337341
 30
0.0
  0
VERTEX
  5
34D
  8
CK_LEVEL_1
 10
205.2547075014443
 20
52.09982483108348
 30
0.0
  0
VERTEX
  5
34E
  8
CK_LEVEL_1
 10
205.2524559231158
 20
52.11411841188924
 30
0.0
  0
VERTEX
  5
34F
  8
CK_LEVEL_1
 10
205.2498348838583
 20
52.12841034567919
 30
0.0
  0
VERTEX
  5
350
  8
CK_LEVEL_1
 10
205.2468411673323
 20
52.14269505234186
 30
0.0
  0
VERTEX
  5
351
  8
CK_LEVEL_1
 10
205.2434715571981
 20
52.15696695176575
 30
0.0
  0
VERTEX
  5
352
  8
CK_LEVEL_1
 10
205.2397228371163
 20
52.17122046383936
 30
0.0
  0
VERTEX
  5
353
  8
CK_LEVEL_1
 10
205.2355917907472
 20
52.1854500084512
 30
0.0
  0
VERTEX
  5
354
  8
CK_LEVEL_1
 10
205.2310752017512
 20
52.19965000548977
 30
0.0
  0
VERTEX
  5
355
  8
CK_LEVEL_1
 10
205.2261698537888
 20
52.21381487484358
 30
0.0
  0
VERTEX
  5
356
  8
CK_LEVEL_1
 10
205.2208725305204
 20
52.22793903640115
 30
0.0
  0
VERTEX
  5
357
  8
CK_LEVEL_1
 10
205.2151800156065
 20
52.24201691005099
 30
0.0
  0
VERTEX
  5
358
  8
CK_LEVEL_1
 10
205.2090890927074
 20
52.25604291568159
 30
0.0
  0
VERTEX
  5
359
  8
CK_LEVEL_1
 10
205.2025965454836
 20
52.27001147318147
 30
0.0
  0
VERTEX
  5
35A
  8
CK_LEVEL_1
 10
205.1956991575955
 20
52.28391700243913
 30
0.0
  0
VERTEX
  5
35B
  8
CK_LEVEL_1
 10
205.1883937127035
 20
52.29775392334307
 30
0.0
  0
VERTEX
  5
35C
  8
CK_LEVEL_1
 10
205.180676994468
 20
52.31151665578182
 30
0.0
  0
VERTEX
  5
35D
  8
CK_LEVEL_1
 10
203.7042078740627
 20
54.86883618813203
 30
0.0
  0
VERTEX
  5
35E
  8
CK_LEVEL_1
 10
201.7996757259026
 20
54.86736677115953
 30
0.0
 42
-0.578101247447213
  0
VERTEX
  5
35F
  8
CK_LEVEL_1
 10
201.5834514490927
 20
55.242854069792
 30
0.0
  0
VERTEX
  5
360
  8
CK_LEVEL_1
 10
202.5433106889805
 20
56.87956909505746
 30
0.0
  0
VERTEX
  5
361
  8
CK_LEVEL_1
 10
201.5724093519221
 20
58.56121953997801
 30
0.0
  0
VERTEX
  5
362
  8
CK_LEVEL_1
 10
201.5606766249169
 20
58.58071428764185
 30
0.0
  0
VERTEX
  5
363
  8
CK_LEVEL_1
 10
201.5483865229897
 20
58.59954298351443
 30
0.0
  0
VERTEX
  5
364
  8
CK_LEVEL_1
 10
201.5355584677358
 20
58.61770560305371
 30
0.0
  0
VERTEX
  5
365
  8
CK_LEVEL_1
 10
201.5222118807506
 20
58.63520212171764
 30
0.0
  0
VERTEX
  5
366
  8
CK_LEVEL_1
 10
201.5083661836296
 20
58.65203251496421
 30
0.0
  0
VERTEX
  5
367
  8
CK_LEVEL_1
 10
201.4940407979681
 20
58.66819675825137
 30
0.0
  0
VERTEX
  5
368
  8
CK_LEVEL_1
 10
201.4792551453615
 20
58.6836948270371
 30
0.0
  0
VERTEX
  5
369
  8
CK_LEVEL_1
 10
201.4640286474053
 20
58.69852669677937
 30
0.0
  0
VERTEX
  5
36A
  8
CK_LEVEL_1
 10
201.4483807256948
 20
58.71269234293614
 30
0.0
  0
VERTEX
  5
36B
  8
CK_LEVEL_1
 10
201.4323308018253
 20
58.72619174096536
 30
0.0
  0
VERTEX
  5
36C
  8
CK_LEVEL_1
 10
201.4158982973924
 20
58.73902486632502
 30
0.0
  0
VERTEX
  5
36D
  8
CK_LEVEL_1
 10
201.3991026339913
 20
58.75119169447309
 30
0.0
  0
VERTEX
  5
36E
  8
CK_LEVEL_1
 10
201.3819632332176
 20
58.76269220086753
 30
0.0
  0
VERTEX
  5
36F
  8
CK_LEVEL_1
 10
201.3644995166666
 20
58.7735263609663
 30
0.0
  0
VERTEX
  5
370
  8
CK_LEVEL_1
 10
201.3467309059336
 20
58.78369415022738
 30
0.0
  0
SEQEND
  5
E36
  8
CK_LEVEL_1
  0
POLYLINE
  5
B6
  8
CK_LEVEL_1
 66
     1
 10
0.0
 20
0.0
 30
0.0
 70
     1
  0
VERTEX
  5
371
  8
CK_LEVEL_1
 10
216.3246911345383
 20
81.30379462363551
 30
0.0
 42
0.4142135623730951
  0
VERTEX
  5
372
  8
CK_LEVEL_1
 10
216.0046911345383
 20
80.9837946236355
 30
0.0
 42
0.4142135623730951
  0
VERTEX
  5
373
  8
CK_LEVEL_1
 10
216.3246911345383
 20
80.66379462363551
 30
0.0
 42
0.4142135623730951
  0
VERTEX
  5
374
  8
CK_LEVEL_1
 10
216.6446911345383
 20
80.9837946236355
 30
0.0
 42
0.4142135623730951
  0
SEQEND
  5
E37
  8
CK_LEVEL_1
  0
POLYLINE
  5
B7
  8
CK_LEVEL_1
 66
     1
 10
0.0
 20
0.0
 30
0.0
 70
     1
  0
VERTEX
  5
375
  8
CK_LEVEL_1
 10
216.3276476564108
 20
81.30915951649222
 30
0.0
 42
0.4142135623730951
  0
VERTEX
  5
376
  8
CK_LEVEL_1
 10
216.0076476564108
 20
80.98915951649221
 30
0.0
 42
0.4142135623730951
  0
VERTEX
  5
377
  8
CK_LEVEL_1
 10
216.3276476564108
 20
80.66915951649221
 30
0.0
 42
0.4142135623730951
  0
VERTEX
  5
378
  8
CK_LEVEL_1
 10
216.6476476564108
 20
80.98915951649221
 30
0.0
 42
0.4142135623730951
  0
SEQEND
  5
E38
  8
CK_LEVEL_1
  0
POLYLINE
  5
B8
  8
CK_LEVEL_1
 66
     1
 10
0.0
 20
0.0
 30
0.0
 70
     1
  0
VERTEX
  5
379
  8
CK_LEVEL_1
 10
215.0391615482171
 20
82.99013412104787
 30
0.0
  0
VERTEX
  5
37A
  8
CK_LEVEL_1
 10
212.3878161507749
 20
78.42166205160903
 30
0.0
 42
0.5781012530645524
  0
VERTEX
  5
37B
  8
CK_LEVEL_1
 10
212.6040404254691
 20
78.04617474933116
 30
0.0
  0
VERTEX
  5
37C
  8
CK_LEVEL_1
 10
220.0512548873525
 20
78.04617474933119
 30
0.0
 42
0.5781012530795141
  0
VERTEX
  5
37D
  8
CK_LEVEL_1
 10
220.2674791620467
 20
78.42166205160906
 30
0.0
  0
VERTEX
  5
37E
  8
CK_LEVEL_1
 10
217.6161337646046
 20
82.99013412104762
 30
0.0
 42
0.2673458031358774
  0
VERTEX
  5
37F
  8
CK_LEVEL_1
 10
217.1836852152157
 20
83.23915951649222
 30
0.0
  0
VERTEX
  5
380
  8
CK_LEVEL_1
 10
215.4716100976059
 20
83.23915951649222
 30
0.0
 42
0.2673458031354673
  0
SEQEND
  5
E39
  8
CK_LEVEL_1
  0
POLYLINE
  5
B9
  8
CK_LEVEL_1
 66
     1
 10
0.0
 20
0.0
 30
0.0
 70
     1
  0
VERTEX
  5
381
  8
CK_LEVEL_1
 10
212.3440876922814
 20
77.8482561936848
 30
0.0
  0
VERTEX
  5
382
  8
CK_LEVEL_1
 10
220.3112076205404
 20
77.84825619368422
 30
0.0
  0
VERTEX
  5
383
  8
CK_LEVEL_1
 10
217.3999094899102
 20
82.8646468187701
 30
0.0
 42
0.2673458031359041
  0
VERTEX
  5
384
  8
CK_LEVEL_1
 10
217.1836852152161
 20
82.98915951649222
 30
0.0
  0
VERTEX
  5
385
  8
CK_LEVEL_1
 10
215.4716100976055
 20
82.98915951649222
 30
0.0
 42
0.2673458031354876
  0
VERTEX
  5
386
  8
CK_LEVEL_1
 10
215.2553858229113
 20
82.8646468187701
 30
0.0
  0
SEQEND
  5
E3A
  8
CK_LEVEL_1
  0
POLYLINE
  5
BA
  8
CK_LEVEL_1
 66
     1
 10
0.0
 20
0.0
 30
0.0
 70
     1
  0
VERTEX
  5
387
  8
CK_LEVEL_1
 10
220.4606882430704
 20
67.36082821789259
 30
0.0
  0
VERTEX
  5
388
  8
CK_LEVEL_1
 10
223.2989894475756
 20
72.27691011127936
 30
0.0
 42
-0.5773502691860283
  0
VERTEX
  5
389
  8
CK_LEVEL_1
 10
223.762599037584
 20
72.27691011127936
 30
0.0
  0
VERTEX
  5
38A
  8
CK_LEVEL_1
 10
226.6009002420891
 20
67.36082821789259
 30
0.0
 42
-0.5773502691813766
  0
VERTEX
  5
38B
  8
CK_LEVEL_1
 10
226.3690954470849
 20
66.95933053550716
 30
0.0
  0
VERTEX
  5
38C
  8
CK_LEVEL_1
 10
220.6924930380747
 20
66.95933053550716
 30
0.0
 42
-0.5773502691973786
  0
SEQEND
  5
E3B
  8
CK_LEVEL_1
  0
POLYLINE
  5
BB
  8
CK_LEVEL_1
 66
     1
 10
0.0
 20
0.0
 30
0.0
 70
     1
  0
VERTEX
  5
38D
  8
CK_LEVEL_1
 10
226.6480996409655
 20
66.79094986040828
 30
0.0
  0
VERTEX
  5
38E
  8
CK_LEVEL_1
 10
223.2827130915495
 20
72.59742806849643
 30
0.0
  0
VERTEX
  5
38F
  8
CK_LEVEL_1
 10
223.267401646796
 20
72.58872575335077
 30
0.0
  0
VERTEX
  5
390
  8
CK_LEVEL_1
 10
223.2524031299176
 20
72.57951300988067
 30
0.0
  0
VERTEX
  5
391
  8
CK_LEVEL_1
 10
223.2377304012288
 20
72.56979871395048
 30
0.0
  0
VERTEX
  5
392
  8
CK_LEVEL_1
 10
223.223396321044
 20
72.55959174142457
 30
0.0
  0
VERTEX
  5
393
  8
CK_LEVEL_1
 10
223.2094137496778
 20
72.54890096816732
 30
0.0
  0
VERTEX
  5
394
  8
CK_LEVEL_1
 10
223.1957955474447
 20
72.53773527004309
 30
0.0
  0
VERTEX
  5
395
  8
CK_LEVEL_1
 10
223.1825545746593
 20
72.52610352291626
 30
0.0
  0
VERTEX
  5
396
  8
CK_LEVEL_1
 10
223.169703691636
 20
72.51401460265123
 30
0.0
  0
VERTEX
  5
397
  8
CK_LEVEL_1
 10
223.1572557586894
 20
72.50147738511234
 30
0.0
  0
VERTEX
  5
398
  8
CK_LEVEL_1
 10
223.145223636134
 20
72.488500746164
 30
0.0
  0
VERTEX
  5
399
  8
CK_LEVEL_1
 10
223.1336201842843
 20
72.47509356167055
 30
0.0
  0
VERTEX
  5
39A
  8
CK_LEVEL_1
 10
223.1224582634549
 20
72.46126470749638
 30
0.0
  0
VERTEX
  5
39B
  8
CK_LEVEL_1
 10
223.1117507339602
 20
72.44702305950585
 30
0.0
  0
VERTEX
  5
39C
  8
CK_LEVEL_1
 10
223.1015104561147
 20
72.43237749356337
 30
0.0
  0
VERTEX
  5
39D
  8
CK_LEVEL_1
 10
223.0917502902331
 20
72.41733688553326
 30
0.0
  0
VERTEX
  5
39E
  8
CK_LEVEL_1
 10
223.0824830966298
 20
72.40191011127995
 30
0.0
  0
VERTEX
  5
39F
  8
CK_LEVEL_1
 10
222.0776702727685
 20
70.66152324825545
 30
0.0
  0
VERTEX
  5
3A0
  8
CK_LEVEL_1
 10
222.5103656601034
 20
69.93359967254348
 30
0.0
 42
-0.5781012652370806
  0
VERTEX
  5
3A1
  8
CK_LEVEL_1
 10
222.2941413899865
 20
69.55811236237864
 30
0.0
  0
VERTEX
  5
3A2
  8
CK_LEVEL_1
 10
221.4447609586581
 20
69.56529215963788
 30
0.0
  0
VERTEX
  5
3A3
  8
CK_LEVEL_1
 10
220.2845971475886
 20
67.55582949376374
 30
0.0
  0
VERTEX
  5
3A4
  8
CK_LEVEL_1
 10
223.7450339769182
 20
67.55811236237862
 30
0.0
 42
-0.2673458076491258
  0
VERTEX
  5
3A5
  8
CK_LEVEL_1
 10
223.961258253728
 20
67.43359966101109
 30
0.0
  0
VERTEX
  5
3A6
  8
CK_LEVEL_1
 10
224.3796622731123
 20
66.7093305355071
 30
0.0
  0
VERTEX
  5
3A7
  8
CK_LEVEL_1
 10
226.3690954470861
 20
66.70933053550716
 30
0.0
  0
VERTEX
  5
3A8
  8
CK_LEVEL_1
 10
226.3878034777291
 20
66.70966809172774
 30
0.0
  0
VERTEX
  5
3A9
  8
CK_LEVEL_1
 10
226.4064163511615
 20
66.71067576552683
 30
0.0
  0
VERTEX
  5
3AA
  8
CK_LEVEL_1
 10
226.4249181648276
 20
66.71234606461152
 30
0.0
  0
VERTEX
  5
3AB
  8
CK_LEVEL_1
 10
226.4432930161718
 20
66.71467149668887
 30
0.0
  0
VERTEX
  5
3AC
  8
CK_LEVEL_1
 10
226.4615250026385
 20
66.71764456946588
 30
0.0
  0
VERTEX
  5
3AD
  8
CK_LEVEL_1
 10
226.4795982216723
 20
66.72125779064964
 30
0.0
  0
VERTEX
  5
3AE
  8
CK_LEVEL_1
 10
226.4974967707174
 20
66.72550366794718
 30
0.0
  0
VERTEX
  5
3AF
  8
CK_LEVEL_1
 10
226.5152047472183
 20
66.73037470906556
 30
0.0
  0
VERTEX
  5
3B0
  8
CK_LEVEL_1
 10
226.5327062486194
 20
66.7358634217118
 30
0.0
  0
VERTEX
  5
3B1
  8
CK_LEVEL_1
 10
226.5499853723653
 20
66.74196231359298
 30
0.0
  0
VERTEX
  5
3B2
  8
CK_LEVEL_1
 10
226.5670262159001
 20
66.74866389241615
 30
0.0
  0
VERTEX
  5
3B3
  8
CK_LEVEL_1
 10
226.5838128766685
 20
66.75596066588832
 30
0.0
  0
VERTEX
  5
3B4
  8
CK_LEVEL_1
 10
226.6003294521148
 20
66.76384514171659
 30
0.0
  0
VERTEX
  5
3B5
  8
CK_LEVEL_1
 10
226.6165600396835
 20
66.77230982760797
 30
0.0
  0
VERTEX
  5
3B6
  8
CK_LEVEL_1
 10
226.6324887368189
 20
66.7813472312695
 30
0.0
  0
SEQEND
  5
E3C
  8
CK_LEVEL_1
  0
POLYLINE
  5
BC
  8
CK_LEVEL_1
 66
     1
 10
0.0
 20
0.0
 30
0.0
 70
     1
  0
VERTEX
  5
3B7
  8
CK_LEVEL_1
 10
231.6229661326016
 20
53.94236677115953
 30
0.0
 42
-0.4142135623730951
  0
VERTEX
  5
3B8
  8
CK_LEVEL_1
 10
232.1979661326016
 20
53.36736677115953
 30
0.0
 42
-0.4142135623730951
  0
VERTEX
  5
3B9
  8
CK_LEVEL_1
 10
231.6229661326016
 20
52.79236677115952
 30
0.0
 42
-0.4142135623730951
  0
VERTEX
  5
3BA
  8
CK_LEVEL_1
 10
231.0479661326015
 20
53.36736677115953
 30
0.0
 42
-0.4142135623730951
  0
SEQEND
  5
E3D
  8
CK_LEVEL_1
  0
POLYLINE
  5
BD
  8
CK_LEVEL_1
 66
     1
 10
0.0
 20
0.0
 30
0.0
 70
     1
  0
VERTEX
  5
3BB
  8
CK_LEVEL_1
 10
227.651916210821
 20
52.18651665578068
 30
0.0
  0
VERTEX
  5
3BC
  8
CK_LEVEL_1
 10
231.2601838533672
 20
58.43621953997742
 30
0.0
 42
-0.5773502691860283
  0
VERTEX
  5
3BD
  8
CK_LEVEL_1
 10
231.8495601604858
 20
58.43621953997742
 30
0.0
  0
VERTEX
  5
3BE
  8
CK_LEVEL_1
 10
235.4578278030319
 20
52.18651665578068
 30
0.0
 42
-0.5773502691813766
  0
VERTEX
  5
3BF
  8
CK_LEVEL_1
 10
235.1631396494726
 20
51.67610180142726
 30
0.0
  0
VERTEX
  5
3C0
  8
CK_LEVEL_1
 10
227.9466043643803
 20
51.67610180142726
 30
0.0
 42
-0.5773502691973786
  0
SEQEND
  5
E3E
  8
CK_LEVEL_1
  0
POLYLINE
  5
BE
  8
CK_LEVEL_1
 66
     1
 10
0.0
 20
0.0
 30
0.0
 70
     1
  0
VERTEX
  5
3C1
  8
CK_LEVEL_1
 10
231.2874100317294
 20
58.79319554410873
 30
0.0
  0
VERTEX
  5
3C2
  8
CK_LEVEL_1
 10
233.4907042991022
 20
54.99187946888166
 30
0.0
 42
0.267345803134228
  0
VERTEX
  5
3C3
  8
CK_LEVEL_1
 10
233.7069285737964
 20
54.86736677115953
 30
0.0
  0
VERTEX
  5
3C4
  8
CK_LEVEL_1
 10
234.1949076567894
 20
54.87395851497512
 30
0.0
  0
VERTEX
  5
3C5
  8
CK_LEVEL_1
 10
235.674334153979
 20
52.31151665577907
 30
0.0
  0
VERTEX
  5
3C6
  8
CK_LEVEL_1
 10
235.6815814094098
 20
52.29859401442851
 30
0.0
  0
VERTEX
  5
3C7
  8
CK_LEVEL_1
 10
235.6884790516169
 20
52.28554145853027
 30
0.0
  0
VERTEX
  5
3C8
  8
CK_LEVEL_1
 10
235.6950272977186
 20
52.27236549859003
 30
0.0
  0
VERTEX
  5
3C9
  8
CK_LEVEL_1
 10
235.7012263648327
 20
52.25907264511352
 30
0.0
  0
VERTEX
  5
3CA
  8
CK_LEVEL_1
 10
235.7070764700775
 20
52.24566940860642
 30
0.0
  0
VERTEX
  5
3CB
  8
CK_LEVEL_1
 10
235.7125778305708
 20
52.23216229957444
 30
0.0
  0
VERTEX
  5
3CC
  8
CK_LEVEL_1
 10
235.7177306634308
 20
52.21855782852327
 30
0.0
  0
VERTEX
  5
3CD
  8
CK_LEVEL_1
 10
235.7225351857754
 20
52.20486250595863
 30
0.0
  0
VERTEX
  5
3CE
  8
CK_LEVEL_1
 10
235.7269916147228
 20
52.19108284238621
 30
0.0
  0
VERTEX
  5
3CF
  8
CK_LEVEL_1
 10
235.731100167391
 20
52.17722534831172
 30
0.0
  0
VERTEX
  5
3D0
  8
CK_LEVEL_1
 10
235.7348610608981
 20
52.16329653424086
 30
0.0
  0
VERTEX
  5
3D1
  8
CK_LEVEL_1
 10
235.7382745123621
 20
52.14930291067934
 30
0.0
  0
VERTEX
  5
3D2
  8
CK_LEVEL_1
 10
235.741340738901
 20
52.13525098813284
 30
0.0
  0
VERTEX
  5
3D3
  8
CK_LEVEL_1
 10
235.7440599576329
 20
52.12114727710708
 30
0.0
  0
VERTEX
  5
3D4
  8
CK_LEVEL_1
 10
235.7464323856758
 20
52.10699828810777
 30
0.0
  0
VERTEX
  5
3D5
  8
CK_LEVEL_1
 10
235.7484582401478
 20
52.09281053164059
 30
0.0
  0
VERTEX
  5
3D6
  8
CK_LEVEL_1
 10
235.750137738167
 20
52.07859051821125
 30
0.0
  0
VERTEX
  5
3D7
  8
CK_LEVEL_1
 10
235.7514710968513
 20
52.06434475832546
 30
0.0
  0
VERTEX
  5
3D8
  8
CK_LEVEL_1
 10
235.7524585333188
 20
52.05007976248892
 30
0.0
  0
VERTEX
  5
3D9
  8
CK_LEVEL_1
 10
235.7531002646877
 20
52.03580204120733
 30
0.0
  0
VERTEX
  5
3DA
  8
CK_LEVEL_1
 10
235.7533965080759
 20
52.0215181049864
 30
0.0
  0
VERTEX
  5
3DB
  8
CK_LEVEL_1
 10
235.7533474806014
 20
52.00723446433182
 30
0.0
  0
VERTEX
  5
3DC
  8
CK_LEVEL_1
 10
235.7529533993824
 20
51.99295762974929
 30
0.0
  0
VERTEX
  5
3DD
  8
CK_LEVEL_1
 10
235.7522144815369
 20
51.97869411174453
 30
0.0
  0
VERTEX
  5
3DE
  8
CK_LEVEL_1
 10
235.7511309441828
 20
51.96445042082323
 30
0.0
  0
VERTEX
  5
3DF
  8
CK_LEVEL_1
 10
235.7497030044384
 20
51.9502330674911
 30
0.0
  0
VERTEX
  5
3E0
  8
CK_LEVEL_1
 10
235.7479308794216
 20
51.93604856225383
 30
0.0
  0
VERTEX
  5
3E1
  8
CK_LEVEL_1
 10
235.7458147862504
 20
51.92190341561712
 30
0.0
  0
VERTEX
  5
3E2
  8
CK_LEVEL_1
 10
235.743354942043
 20
51.9078041380867
 30
0.0
  0
VERTEX
  5
3E3
  8
CK_LEVEL_1
 10
235.7405515639173
 20
51.89375724016824
 30
0.0
  0
VERTEX
  5
3E4
  8
CK_LEVEL_1
 10
235.7374048689914
 20
51.87976923236747
 30
0.0
  0
VERTEX
  5
3E5
  8
CK_LEVEL_1
 10
235.7339150743834
 20
51.86584662519006
 30
0.0
  0
VERTEX
  5
3E6
  8
CK_LEVEL_1
 10
227.3765134103965
 20
51.86198909200425
 30
0.0
  0
VERTEX
  5
3E7
  8
CK_LEVEL_1
 10
227.3729762528878
 20
51.87545691502028
 30
0.0
  0
VERTEX
  5
3E8
  8
CK_LEVEL_1
 10
227.3697538785352
 20
51.88901795291588
 30
0.0
  0
VERTEX
  5
3E9
  8
CK_LEVEL_1
 10
227.3668495036785
 20
51.90266662557955
 30
0.0
  0
VERTEX
  5
3EA
  8
CK_LEVEL_1
 10
227.364266344657
 20
51.91639735289981
 30
0.0
  0
VERTEX
  5
3EB
  8
CK_LEVEL_1
 10
227.3620076178104
 20
51.93020455476517
 30
0.0
  0
VERTEX
  5
3EC
  8
CK_LEVEL_1
 10
227.3600765394783
 20
51.94408265106412
 30
0.0
  0
VERTEX
  5
3ED
  8
CK_LEVEL_1
 10
227.3584763260002
 20
51.95802606168519
 30
0.0
  0
VERTEX
  5
3EE
  8
CK_LEVEL_1
 10
227.3572101937158
 20
51.97202920651686
 30
0.0
  0
VERTEX
  5
3EF
  8
CK_LEVEL_1
 10
227.3562813589645
 20
51.98608650544767
 30
0.0
  0
VERTEX
  5
3F0
  8
CK_LEVEL_1
 10
227.3556930380861
 20
52.00019237836611
 30
0.0
  0
VERTEX
  5
3F1
  8
CK_LEVEL_1
 10
227.35544844742
 20
52.01434124516068
 30
0.0
  0
VERTEX
  5
3F2
  8
CK_LEVEL_1
 10
227.3555508033058
 20
52.0285275257199
 30
0.0
  0
VERTEX
  5
3F3
  8
CK_LEVEL_1
 10
227.3560033220832
 20
52.04274563993228
 30
0.0
  0
VERTEX
  5
3F4
  8
CK_LEVEL_1
 10
227.3568092200916
 20
52.05699000768632
 30
0.0
  0
VERTEX
  5
3F5
  8
CK_LEVEL_1
 10
227.3579717136707
 20
52.07125504887053
 30
0.0
  0
VERTEX
  5
3F6
  8
CK_LEVEL_1
 10
227.3594940191601
 20
52.08553518337341
 30
0.0
  0
VERTEX
  5
3F7
  8
CK_LEVEL_1
 10
227.3613793528992
 20
52.09982483108348
 30
0.0
  0
VERTEX
  5
3F8
  8
CK_LEVEL_1
 10
227.3636309312277
 20
52.11411841188924
 30
0.0
  0
VERTEX
  5
3F9
  8
CK_LEVEL_1
 10
227.3662519704852
 20
52.12841034567919
 30
0.0
  0
VERTEX
  5
3FA
  8
CK_LEVEL_1
 10
227.3692456870112
 20
52.14269505234186
 30
0.0
  0
VERTEX
  5
3FB
  8
CK_LEVEL_1
 10
227.3726152971454
 20
52.15696695176575
 30
0.0
  0
VERTEX
  5
3FC
  8
CK_LEVEL_1
 10
227.3763640172272
 20
52.17122046383936
 30
0.0
  0
VERTEX
  5
3FD
  8
CK_LEVEL_1
 10
227.3804950635964
 20
52.1854500084512
 30
0.0
  0
VERTEX
  5
3FE
  8
CK_LEVEL_1
 10
227.3850116525923
 20
52.19965000548977
 30
0.0
  0
VERTEX
  5
3FF
  8
CK_LEVEL_1
 10
227.3899170005547
 20
52.21381487484358
 30
0.0
  0
VERTEX
  5
400
  8
CK_LEVEL_1
 10
227.3952143238231
 20
52.22793903640115
 30
0.0
  0
VERTEX
  5
401
  8
CK_LEVEL_1
 10
227.400906838737
 20
52.24201691005099
 30
0.0
  0
VERTEX
  5
402
  8
CK_LEVEL_1
 10
227.4069977616361
 20
52.25604291568159
 30
0.0
  0
VERTEX
  5
403
  8
CK_LEVEL_1
 10
227.4134903088599
 20
52.27001147318147
 30
0.0
  0
VERTEX
  5
404
  8
CK_LEVEL_1
 10
227.420387696748
 20
52.28391700243913
 30
0.0
  0
VERTEX
  5
405
  8
CK_LEVEL_1
 10
227.42769314164
 20
52.29775392334307
 30
0.0
  0
VERTEX
  5
406
  8
CK_LEVEL_1
 10
227.4354098598755
 20
52.31151665578182
 30
0.0
  0
VERTEX
  5
407
  8
CK_LEVEL_1
 10
228.9118789802808
 20
54.86883618813203
 30
0.0
  0
VERTEX
  5
408
  8
CK_LEVEL_1
 10
230.8164111284409
 20
54.86736677115953
 30
0.0
 42
0.578101247447213
  0
VERTEX
  5
409
  8
CK_LEVEL_1
 10
231.0326354052508
 20
55.242854069792
 30
0.0
  0
VERTEX
  5
40A
  8
CK_LEVEL_1
 10
230.072776165363
 20
56.87956909505746
 30
0.0
  0
VERTEX
  5
40B
  8
CK_LEVEL_1
 10
231.0436775024214
 20
58.56121953997801
 30
0.0
  0
VERTEX
  5
40C
  8
CK_LEVEL_1
 10
231.0554102294266
 20
58.58071428764185
 30
0.0
  0
VERTEX
  5
40D
  8
CK_LEVEL_1
 10
231.0677003313538
 20
58.59954298351443
 30
0.0
  0
VERTEX
  5
40E
  8
CK_LEVEL_1
 10
231.0805283866077
 20
58.61770560305371
 30
0.0
  0
VERTEX
  5
40F
  8
CK_LEVEL_1
 10
231.0938749735929
 20
58.63520212171764
 30
0.0
  0
VERTEX
  5
410
  8
CK_LEVEL_1
 10
231.1077206707139
 20
58.65203251496421
 30
0.0
  0
VERTEX
  5
411
  8
CK_LEVEL_1
 10
231.1220460563754
 20
58.66819675825137
 30
0.0
  0
VERTEX
  5
412
  8
CK_LEVEL_1
 10
231.136831708982
 20
58.6836948270371
 30
0.0
  0
VERTEX
  5
413
  8
CK_LEVEL_1
 10
231.1520582069382
 20
58.69852669677937
 30
0.0
  0
VERTEX
  5
414
  8
CK_LEVEL_1
 10
231.1677061286487
 20
58.71269234293614
 30
0.0
  0
VERTEX
  5
415
  8
CK_LEVEL_1
 10
231.1837560525182
 20
58.72619174096536
 30
0.0
  0
VERTEX
  5
416
  8
CK_LEVEL_1
 10
231.2001885569511
 20
58.73902486632502
 30
0.0
  0
VERTEX
  5
417
  8
CK_LEVEL_1
 10
231.2169842203522
 20
58.75119169447309
 30
0.0
  0
VERTEX
  5
418
  8
CK_LEVEL_1
 10
231.2341236211259
 20
58.76269220086753
 30
0.0
  0
VERTEX
  5
419
  8
CK_LEVEL_1
 10
231.2515873376769
 20
58.7735263609663
 30
0.0
  0
VERTEX
  5
41A
  8
CK_LEVEL_1
 10
231.2693559484099
 20
58.78369415022738
 30
0.0
  0
SEQEND
  5
E3F
  8
CK_LEVEL_1
  0
POLYLINE
  5
BF
  8
CK_LEVEL_1
 66
     1
 10
0.0
 20
0.0
 30
0.0
 70
     1
  0
VERTEX
  5
41B
  8
CK_LEVEL_1
 10
245.3726116568592
 20
53.49736677115953
 30
0.0
 42
0.4142135623730951
  0
VERTEX
  5
41C
  8
CK_LEVEL_1
 10
245.2426116568591
 20
53.36736677115953
 30
0.0
 42
0.4142135623730951
  0
VERTEX
  5
41D
  8
CK_LEVEL_1
 10
245.3726116568592
 20
53.23736677115952
 30
0.0
 42
0.4142135623730951
  0
VERTEX
  5
41E
  8
CK_LEVEL_1
 10
245.5026116568592
 20
53.36736677115953
 30
0.0
 42
0.4142135623730951
  0
SEQEND
  5
E40
  8
CK_LEVEL_1
  0
POLYLINE
  5
C0
  8
CK_LEVEL_1
 66
     1
 10
0.0
 20
0.0
 30
0.0
 70
     1
  0
VERTEX
  5
41F
  8
CK_LEVEL_1
 10
269.2867438869143
 20
67.35015822989361
 30
0.0
  0
VERTEX
  5
420
  8
CK_LEVEL_1
 10
266.4484426824092
 20
72.26624012328038
 30
0.0
 42
0.5773502691860283
  0
VERTEX
  5
421
  8
CK_LEVEL_1
 10
265.9848330924007
 20
72.26624012328038
 30
0.0
  0
VERTEX
  5
422
  8
CK_LEVEL_1
 10
263.1465318878956
 20
67.35015822989361
 30
0.0
 42
0.5773502691813766
  0
VERTEX
  5
423
  8
CK_LEVEL_1
 10
263.3783366828998
 20
66.94866054750818
 30
0.0
  0
VERTEX
  5
424
  8
CK_LEVEL_1
 10
269.0549390919101
 20
66.94866054750818
 30
0.0
 42
0.5773502691973786
  0
SEQEND
  5
E41
  8
CK_LEVEL_1
  0
POLYLINE
  5
C1
  8
CK_LEVEL_1
 66
     1
 10
0.0
 20
0.0
 30
0.0
 70
     1
  0
VERTEX
  5
425
  8
CK_LEVEL_1
 10
262.6146563488515
 20
66.74796812973145
 30
0.0
  0
VERTEX
  5
426
  8
CK_LEVEL_1
 10
265.9800428982675
 20
72.5544463378196
 30
0.0
  0
VERTEX
  5
427
  8
CK_LEVEL_1
 10
265.995354343021
 20
72.54574402267394
 30
0.0
  0
VERTEX
  5
428
  8
CK_LEVEL_1
 10
266.0103528598994
 20
72.53653127920384
 30
0.0
  0
VERTEX
  5
429
  8
CK_LEVEL_1
 10
266.0250255885882
 20
72.52681698327363
 30
0.0
  0
VERTEX
  5
42A
  8
CK_LEVEL_1
 10
266.039359668773
 20
72.51661001074773
 30
0.0
  0
VERTEX
  5
42B
  8
CK_LEVEL_1
 10
266.0533422401392
 20
72.50591923749047
 30
0.0
  0
VERTEX
  5
42C
  8
CK_LEVEL_1
 10
266.0669604423722
 20
72.49475353936626
 30
0.0
  0
VERTEX
  5
42D
  8
CK_LEVEL_1
 10
266.0802014151577
 20
72.48312179223944
 30
0.0
  0
VERTEX
  5
42E
  8
CK_LEVEL_1
 10
266.093052298181
 20
72.4710328719744
 30
0.0
  0
VERTEX
  5
42F
  8
CK_LEVEL_1
 10
266.1055002311275
 20
72.45849565443552
 30
0.0
  0
VERTEX
  5
430
  8
CK_LEVEL_1
 10
266.117532353683
 20
72.44551901548718
 30
0.0
  0
VERTEX
  5
431
  8
CK_LEVEL_1
 10
266.1291358055327
 20
72.43211183099373
 30
0.0
  0
VERTEX
  5
432
  8
CK_LEVEL_1
 10
266.1402977263621
 20
72.41828297681955
 30
0.0
  0
VERTEX
  5
433
  8
CK_LEVEL_1
 10
266.1510052558568
 20
72.40404132882904
 30
0.0
  0
VERTEX
  5
434
  8
CK_LEVEL_1
 10
266.1612455337022
 20
72.38939576288654
 30
0.0
  0
VERTEX
  5
435
  8
CK_LEVEL_1
 10
266.1710056995839
 20
72.37435515485645
 30
0.0
  0
VERTEX
  5
436
  8
CK_LEVEL_1
 10
266.1802728931872
 20
72.35892838060312
 30
0.0
  0
VERTEX
  5
437
  8
CK_LEVEL_1
 10
267.1850857170485
 20
70.61854151757862
 30
0.0
  0
VERTEX
  5
438
  8
CK_LEVEL_1
 10
266.7523903297135
 20
69.89061794186665
 30
0.0
 42
0.5781012652370806
  0
VERTEX
  5
439
  8
CK_LEVEL_1
 10
266.9686145998305
 20
69.51513063170181
 30
0.0
  0
VERTEX
  5
43A
  8
CK_LEVEL_1
 10
267.8179950311589
 20
69.52231042896105
 30
0.0
  0
VERTEX
  5
43B
  8
CK_LEVEL_1
 10
268.9781588422284
 20
67.51284776308691
 30
0.0
  0
VERTEX
  5
43C
  8
CK_LEVEL_1
 10
265.5177220128988
 20
67.5151306317018
 30
0.0
 42
0.2673458076491258
  0
VERTEX
  5
43D
  8
CK_LEVEL_1
 10
265.301497736089
 20
67.39061793033426
 30
0.0
  0
VERTEX
  5
43E
  8
CK_LEVEL_1
 10
264.8830937167047
 20
66.66634880483028
 30
0.0
  0
VERTEX
  5
43F
  8
CK_LEVEL_1
 10
262.8936605427309
 20
66.66634880483033
 30
0.0
  0
VERTEX
  5
440
  8
CK_LEVEL_1
 10
262.8749525120878
 20
66.66668636105089
 30
0.0
  0
VERTEX
  5
441
  8
CK_LEVEL_1
 10
262.8563396386555
 20
66.66769403484999
 30
0.0
  0
VERTEX
  5
442
  8
CK_LEVEL_1
 10
262.8378378249894
 20
66.66936433393468
 30
0.0
  0
VERTEX
  5
443
  8
CK_LEVEL_1
 10
262.8194629736452
 20
66.67168976601202
 30
0.0
  0
VERTEX
  5
444
  8
CK_LEVEL_1
 10
262.8012309871784
 20
66.67466283878903
 30
0.0
  0
VERTEX
  5
445
  8
CK_LEVEL_1
 10
262.7831577681447
 20
66.6782760599728
 30
0.0
  0
VERTEX
  5
446
  8
CK_LEVEL_1
 10
262.7652592190996
 20
66.68252193727034
 30
0.0
  0
VERTEX
  5
447
  8
CK_LEVEL_1
 10
262.7475512425987
 20
66.68739297838873
 30
0.0
  0
VERTEX
  5
448
  8
CK_LEVEL_1
 10
262.7300497411975
 20
66.69288169103498
 30
0.0
  0
VERTEX
  5
449
  8
CK_LEVEL_1
 10
262.7127706174517
 20
66.69898058291616
 30
0.0
  0
VERTEX
  5
44A
  8
CK_LEVEL_1
 10
262.6957297739169
 20
66.70568216173933
 30
0.0
  0
VERTEX
  5
44B
  8
CK_LEVEL_1
 10
262.6789431131485
 20
66.71297893521151
 30
0.0
  0
VERTEX
  5
44C
  8
CK_LEVEL_1
 10
262.6624265377022
 20
66.72086341103977
 30
0.0
  0
VERTEX
  5
44D
  8
CK_LEVEL_1
 10
262.6461959501335
 20
66.72932809693114
 30
0.0
  0
VERTEX
  5
44E
  8
CK_LEVEL_1
 10
262.6302672529981
 20
66.73836550059269
 30
0.0
  0
SEQEND
  5
E42
  8
CK_LEVEL_1
  0
POLYLINE
  5
C2
  8
CK_LEVEL_1
 66
     1
 10
0.0
 20
0.0
 30
0.0
 70
     1
  0
VERTEX
  5
44F
  8
CK_LEVEL_1
 10
258.1221461717059
 20
53.94236677115953
 30
0.0
 42
0.4142135623730951
  0
VERTEX
  5
450
  8
CK_LEVEL_1
 10
257.5471461717059
 20
53.36736677115953
 30
0.0
 42
0.4142135623730951
  0
VERTEX
  5
451
  8
CK_LEVEL_1
 10
258.1221461717059
 20
52.79236677115952
 30
0.0
 42
0.4142135623730951
  0
VERTEX
  5
452
  8
CK_LEVEL_1
 10
258.697146171706
 20
53.36736677115953
 30
0.0
 42
0.4142135623730951
  0
SEQEND
  5
E43
  8
CK_LEVEL_1
  0
POLYLINE
  5
C3
  8
CK_LEVEL_1
 66
     1
 10
0.0
 20
0.0
 30
0.0
 70
     1
  0
VERTEX
  5
453
  8
CK_LEVEL_1
 10
262.0931960934865
 20
52.18651665578068
 30
0.0
  0
VERTEX
  5
454
  8
CK_LEVEL_1
 10
258.4849284509403
 20
58.43621953997742
 30
0.0
 42
0.5773502691860283
  0
VERTEX
  5
455
  8
CK_LEVEL_1
 10
257.8955521438217
 20
58.43621953997742
 30
0.0
  0
VERTEX
  5
456
  8
CK_LEVEL_1
 10
254.2872845012756
 20
52.18651665578068
 30
0.0
 42
0.5773502691813766
  0
VERTEX
  5
457
  8
CK_LEVEL_1
 10
254.5819726548349
 20
51.67610180142726
 30
0.0
  0
VERTEX
  5
458
  8
CK_LEVEL_1
 10
261.7985079399272
 20
51.67610180142726
 30
0.0
 42
0.5773502691973786
  0
SEQEND
  5
E44
  8
CK_LEVEL_1
  0
POLYLINE
  5
C4
  8
CK_LEVEL_1
 66
     1
 10
0.0
 20
0.0
 30
0.0
 70
     1
  0
VERTEX
  5
459
  8
CK_LEVEL_1
 10
258.4577022725782
 20
58.79319554410873
 30
0.0
  0
VERTEX
  5
45A
  8
CK_LEVEL_1
 10
256.2544080052053
 20
54.99187946888166
 30
0.0
 42
-0.267345803134228
  0
VERTEX
  5
45B
  8
CK_LEVEL_1
 10
256.0381837305111
 20
54.86736677115953
 30
0.0
  0
VERTEX
  5
45C
  8
CK_LEVEL_1
 10
255.5502046475181
 20
54.87395851497512
 30
0.0
  0
VERTEX
  5
45D
  8
CK_LEVEL_1
 10
254.0707781503286
 20
52.31151665577907
 30
0.0
  0
VERTEX
  5
45E
  8
CK_LEVEL_1
 10
254.0635308948978
 20
52.29859401442851
 30
0.0
  0
VERTEX
  5
45F
  8
CK_LEVEL_1
 10
254.0566332526906
 20
52.28554145853027
 30
0.0
  0
VERTEX
  5
460
  8
CK_LEVEL_1
 10
254.0500850065889
 20
52.27236549859003
 30
0.0
  0
VERTEX
  5
461
  8
CK_LEVEL_1
 10
254.0438859394748
 20
52.25907264511352
 30
0.0
  0
VERTEX
  5
462
  8
CK_LEVEL_1
 10
254.03803583423
 20
52.24566940860642
 30
0.0
  0
VERTEX
  5
463
  8
CK_LEVEL_1
 10
254.0325344737367
 20
52.23216229957444
 30
0.0
  0
VERTEX
  5
464
  8
CK_LEVEL_1
 10
254.0273816408767
 20
52.21855782852327
 30
0.0
  0
VERTEX
  5
465
  8
CK_LEVEL_1
 10
254.0225771185321
 20
52.20486250595863
 30
0.0
  0
VERTEX
  5
466
  8
CK_LEVEL_1
 10
254.0181206895847
 20
52.19108284238621
 30
0.0
  0
VERTEX
  5
467
  8
CK_LEVEL_1
 10
254.0140121369164
 20
52.17722534831172
 30
0.0
  0
VERTEX
  5
468
  8
CK_LEVEL_1
 10
254.0102512434094
 20
52.16329653424086
 30
0.0
  0
VERTEX
  5
469
  8
CK_LEVEL_1
 10
254.0068377919454
 20
52.14930291067934
 30
0.0
  0
VERTEX
  5
46A
  8
CK_LEVEL_1
 10
254.0037715654065
 20
52.13525098813284
 30
0.0
  0
VERTEX
  5
46B
  8
CK_LEVEL_1
 10
254.0010523466746
 20
52.12114727710708
 30
0.0
  0
VERTEX
  5
46C
  8
CK_LEVEL_1
 10
253.9986799186317
 20
52.10699828810777
 30
0.0
  0
VERTEX
  5
46D
  8
CK_LEVEL_1
 10
253.9966540641597
 20
52.09281053164059
 30
0.0
  0
VERTEX
  5
46E
  8
CK_LEVEL_1
 10
253.9949745661405
 20
52.07859051821125
 30
0.0
  0
VERTEX
  5
46F
  8
CK_LEVEL_1
 10
253.9936412074562
 20
52.06434475832546
 30
0.0
  0
VERTEX
  5
470
  8
CK_LEVEL_1
 10
253.9926537709887
 20
52.05007976248892
 30
0.0
  0
VERTEX
  5
471
  8
CK_LEVEL_1
 10
253.9920120396198
 20
52.03580204120733
 30
0.0
  0
VERTEX
  5
472
  8
CK_LEVEL_1
 10
253.9917157962316
 20
52.0215181049864
 30
0.0
  0
VERTEX
  5
473
  8
CK_LEVEL_1
 10
253.9917648237061
 20
52.00723446433182
 30
0.0
  0
VERTEX
  5
474
  8
CK_LEVEL_1
 10
253.9921589049251
 20
51.99295762974929
 30
0.0
  0
VERTEX
  5
475
  8
CK_LEVEL_1
 10
253.9928978227706
 20
51.97869411174453
 30
0.0
  0
VERTEX
  5
476
  8
CK_LEVEL_1
 10
253.9939813601246
 20
51.96445042082323
 30
0.0
  0
VERTEX
  5
477
  8
CK_LEVEL_1
 10
253.9954092998691
 20
51.9502330674911
 30
0.0
  0
VERTEX
  5
478
  8
CK_LEVEL_1
 10
253.9971814248859
 20
51.93604856225383
 30
0.0
  0
VERTEX
  5
479
  8
CK_LEVEL_1
 10
253.9992975180571
 20
51.92190341561712
 30
0.0
  0
VERTEX
  5
47A
  8
CK_LEVEL_1
 10
254.0017573622645
 20
51.9078041380867
 30
0.0
  0
VERTEX
  5
47B
  8
CK_LEVEL_1
 10
254.0045607403902
 20
51.89375724016824
 30
0.0
  0
VERTEX
  5
47C
  8
CK_LEVEL_1
 10
254.0077074353161
 20
51.87976923236747
 30
0.0
  0
VERTEX
  5
47D
  8
CK_LEVEL_1
 10
254.0111972299241
 20
51.86584662519006
 30
0.0
  0
VERTEX
  5
47E
  8
CK_LEVEL_1
 10
262.368598893911
 20
51.86198909200425
 30
0.0
  0
VERTEX
  5
47F
  8
CK_LEVEL_1
 10
262.3721360514197
 20
51.87545691502028
 30
0.0
  0
VERTEX
  5
480
  8
CK_LEVEL_1
 10
262.3753584257723
 20
51.88901795291588
 30
0.0
  0
VERTEX
  5
481
  8
CK_LEVEL_1
 10
262.378262800629
 20
51.90266662557955
 30
0.0
  0
VERTEX
  5
482
  8
CK_LEVEL_1
 10
262.3808459596505
 20
51.91639735289981
 30
0.0
  0
VERTEX
  5
483
  8
CK_LEVEL_1
 10
262.3831046864972
 20
51.93020455476517
 30
0.0
  0
VERTEX
  5
484
  8
CK_LEVEL_1
 10
262.3850357648292
 20
51.94408265106412
 30
0.0
  0
VERTEX
  5
485
  8
CK_LEVEL_1
 10
262.3866359783073
 20
51.95802606168519
 30
0.0
  0
VERTEX
  5
486
  8
CK_LEVEL_1
 10
262.3879021105918
 20
51.97202920651686
 30
0.0
  0
VERTEX
  5
487
  8
CK_LEVEL_1
 10
262.388830945343
 20
51.98608650544767
 30
0.0
  0
VERTEX
  5
488
  8
CK_LEVEL_1
 10
262.3894192662215
 20
52.00019237836611
 30
0.0
  0
VERTEX
  5
489
  8
CK_LEVEL_1
 10
262.3896638568875
 20
52.01434124516068
 30
0.0
  0
VERTEX
  5
48A
  8
CK_LEVEL_1
 10
262.3895615010017
 20
52.0285275257199
 30
0.0
  0
VERTEX
  5
48B
  8
CK_LEVEL_1
 10
262.3891089822243
 20
52.04274563993228
 30
0.0
  0
VERTEX
  5
48C
  8
CK_LEVEL_1
 10
262.3883030842159
 20
52.05699000768632
 30
0.0
  0
VERTEX
  5
48D
  8
CK_LEVEL_1
 10
262.3871405906368
 20
52.07125504887053
 30
0.0
  0
VERTEX
  5
48E
  8
CK_LEVEL_1
 10
262.3856182851475
 20
52.08553518337341
 30
0.0
  0
VERTEX
  5
48F
  8
CK_LEVEL_1
 10
262.3837329514083
 20
52.09982483108348
 30
0.0
  0
VERTEX
  5
490
  8
CK_LEVEL_1
 10
262.3814813730798
 20
52.11411841188924
 30
0.0
  0
VERTEX
  5
491
  8
CK_LEVEL_1
 10
262.3788603338223
 20
52.12841034567919
 30
0.0
  0
VERTEX
  5
492
  8
CK_LEVEL_1
 10
262.3758666172963
 20
52.14269505234186
 30
0.0
  0
VERTEX
  5
493
  8
CK_LEVEL_1
 10
262.3724970071621
 20
52.15696695176575
 30
0.0
  0
VERTEX
  5
494
  8
CK_LEVEL_1
 10
262.3687482870803
 20
52.17122046383936
 30
0.0
  0
VERTEX
  5
495
  8
CK_LEVEL_1
 10
262.3646172407111
 20
52.1854500084512
 30
0.0
  0
VERTEX
  5
496
  8
CK_LEVEL_1
 10
262.3601006517152
 20
52.19965000548977
 30
0.0
  0
VERTEX
  5
497
  8
CK_LEVEL_1
 10
262.3551953037528
 20
52.21381487484358
 30
0.0
  0
VERTEX
  5
498
  8
CK_LEVEL_1
 10
262.3498979804845
 20
52.22793903640115
 30
0.0
  0
VERTEX
  5
499
  8
CK_LEVEL_1
 10
262.3442054655705
 20
52.24201691005099
 30
0.0
  0
VERTEX
  5
49A
  8
CK_LEVEL_1
 10
262.3381145426714
 20
52.25604291568159
 30
0.0
  0
VERTEX
  5
49B
  8
CK_LEVEL_1
 10
262.3316219954476
 20
52.27001147318147
 30
0.0
  0
VERTEX
  5
49C
  8
CK_LEVEL_1
 10
262.3247246075595
 20
52.28391700243913
 30
0.0
  0
VERTEX
  5
49D
  8
CK_LEVEL_1
 10
262.3174191626674
 20
52.29775392334307
 30
0.0
  0
VERTEX
  5
49E
  8
CK_LEVEL_1
 10
262.309702444432
 20
52.31151665578182
 30
0.0
  0
VERTEX
  5
49F
  8
CK_LEVEL_1
 10
260.8332333240267
 20
54.86883618813203
 30
0.0
  0
VERTEX
  5
4A0
  8
CK_LEVEL_1
 10
258.9287011758666
 20
54.86736677115953
 30
0.0
 42
-0.578101247447213
  0
VERTEX
  5
4A1
  8
CK_LEVEL_1
 10
258.7124768990568
 20
55.242854069792
 30
0.0
  0
VERTEX
  5
4A2
  8
CK_LEVEL_1
 10
259.6723361389445
 20
56.87956909505746
 30
0.0
  0
VERTEX
  5
4A3
  8
CK_LEVEL_1
 10
258.7014348018861
 20
58.56121953997801
 30
0.0
  0
VERTEX
  5
4A4
  8
CK_LEVEL_1
 10
258.689702074881
 20
58.58071428764185
 30
0.0
  0
VERTEX
  5
4A5
  8
CK_LEVEL_1
 10
258.6774119729537
 20
58.59954298351443
 30
0.0
  0
VERTEX
  5
4A6
  8
CK_LEVEL_1
 10
258.6645839176998
 20
58.61770560305371
 30
0.0
  0
VERTEX
  5
4A7
  8
CK_LEVEL_1
 10
258.6512373307147
 20
58.63520212171764
 30
0.0
  0
VERTEX
  5
4A8
  8
CK_LEVEL_1
 10
258.6373916335937
 20
58.65203251496421
 30
0.0
  0
VERTEX
  5
4A9
  8
CK_LEVEL_1
 10
258.6230662479321
 20
58.66819675825137
 30
0.0
  0
VERTEX
  5
4AA
  8
CK_LEVEL_1
 10
258.6082805953256
 20
58.6836948270371
 30
0.0
  0
VERTEX
  5
4AB
  8
CK_LEVEL_1
 10
258.5930540973693
 20
58.69852669677937
 30
0.0
  0
VERTEX
  5
4AC
  8
CK_LEVEL_1
 10
258.5774061756588
 20
58.71269234293614
 30
0.0
  0
VERTEX
  5
4AD
  8
CK_LEVEL_1
 10
258.5613562517893
 20
58.72619174096536
 30
0.0
  0
VERTEX
  5
4AE
  8
CK_LEVEL_1
 10
258.5449237473564
 20
58.73902486632502
 30
0.0
  0
VERTEX
  5
4AF
  8
CK_LEVEL_1
 10
258.5281280839554
 20
58.75119169447309
 30
0.0
  0
VERTEX
  5
4B0
  8
CK_LEVEL_1
 10
258.5109886831816
 20
58.76269220086753
 30
0.0
  0
VERTEX
  5
4B1
  8
CK_LEVEL_1
 10
258.4935249666306
 20
58.7735263609663
 30
0.0
  0
VERTEX
  5
4B2
  8
CK_LEVEL_1
 10
258.4757563558976
 20
58.78369415022738
 30
0.0
  0
SEQEND
  5
E45
  8
CK_LEVEL_1
  0
POLYLINE
  5
C5
  8
CK_LEVEL_1
 66
     1
 10
0.0
 20
0.0
 30
0.0
 70
     1
  0
VERTEX
  5
4B3
  8
CK_LEVEL_1
 10
273.4537165845023
 20
81.30379462363551
 30
0.0
 42
0.4142135623730951
  0
VERTEX
  5
4B4
  8
CK_LEVEL_1
 10
273.1337165845023
 20
80.9837946236355
 30
0.0
 42
0.4142135623730951
  0
VERTEX
  5
4B5
  8
CK_LEVEL_1
 10
273.4537165845023
 20
80.66379462363551
 30
0.0
 42
0.4142135623730951
  0
VERTEX
  5
4B6
  8
CK_LEVEL_1
 10
273.7737165845023
 20
80.9837946236355
 30
0.0
 42
0.4142135623730951
  0
SEQEND
  5
E46
  8
CK_LEVEL_1
  0
POLYLINE
  5
C6
  8
CK_LEVEL_1
 66
     1
 10
0.0
 20
0.0
 30
0.0
 70
     1
  0
VERTEX
  5
4B7
  8
CK_LEVEL_1
 10
273.4566731063748
 20
81.30915951649222
 30
0.0
 42
0.4142135623730951
  0
VERTEX
  5
4B8
  8
CK_LEVEL_1
 10
273.1366731063748
 20
80.98915951649221
 30
0.0
 42
0.4142135623730951
  0
VERTEX
  5
4B9
  8
CK_LEVEL_1
 10
273.4566731063748
 20
80.66915951649221
 30
0.0
 42
0.4142135623730951
  0
VERTEX
  5
4BA
  8
CK_LEVEL_1
 10
273.7766731063748
 20
80.98915951649221
 30
0.0
 42
0.4142135623730951
  0
SEQEND
  5
E47
  8
CK_LEVEL_1
  0
POLYLINE
  5
C7
  8
CK_LEVEL_1
 66
     1
 10
0.0
 20
0.0
 30
0.0
 70
     1
  0
VERTEX
  5
4BB
  8
CK_LEVEL_1
 10
272.1681869981811
 20
82.99013412104787
 30
0.0
  0
VERTEX
  5
4BC
  8
CK_LEVEL_1
 10
269.5168416007389
 20
78.42166205160903
 30
0.0
 42
0.5781012530645524
  0
VERTEX
  5
4BD
  8
CK_LEVEL_1
 10
269.7330658754331
 20
78.04617474933116
 30
0.0
  0
VERTEX
  5
4BE
  8
CK_LEVEL_1
 10
277.1802803373165
 20
78.04617474933119
 30
0.0
 42
0.5781012530795141
  0
VERTEX
  5
4BF
  8
CK_LEVEL_1
 10
277.3965046120107
 20
78.42166205160906
 30
0.0
  0
VERTEX
  5
4C0
  8
CK_LEVEL_1
 10
274.7451592145686
 20
82.99013412104762
 30
0.0
 42
0.2673458031358774
  0
VERTEX
  5
4C1
  8
CK_LEVEL_1
 10
274.3127106651797
 20
83.23915951649222
 30
0.0
  0
VERTEX
  5
4C2
  8
CK_LEVEL_1
 10
272.6006355475699
 20
83.23915951649222
 30
0.0
 42
0.2673458031354673
  0
SEQEND
  5
E48
  8
CK_LEVEL_1
  0
POLYLINE
  5
C8
  8
CK_LEVEL_1
 66
     1
 10
0.0
 20
0.0
 30
0.0
 70
     1
  0
VERTEX
  5
4C3
  8
CK_LEVEL_1
 10
269.4731131422454
 20
77.8482561936848
 30
0.0
  0
VERTEX
  5
4C4
  8
CK_LEVEL_1
 10
277.4402330705045
 20
77.84825619368422
 30
0.0
  0
VERTEX
  5
4C5
  8
CK_LEVEL_1
 10
274.5289349398743
 20
82.8646468187701
 30
0.0
 42
0.2673458031359041
  0
VERTEX
  5
4C6
  8
CK_LEVEL_1
 10
274.3127106651801
 20
82.98915951649222
 30
0.0
  0
VERTEX
  5
4C7
  8
CK_LEVEL_1
 10
272.6006355475695
 20
82.98915951649222
 30
0.0
 42
0.2673458031354876
  0
VERTEX
  5
4C8
  8
CK_LEVEL_1
 10
272.3844112728754
 20
82.8646468187701
 30
0.0
  0
SEQEND
  5
E49
  8
CK_LEVEL_1
  0
POLYLINE
  5
C9
  8
CK_LEVEL_1
 66
     1
 10
0.0
 20
0.0
 30
0.0
 70
     1
  0
VERTEX
  5
4C9
  8
CK_LEVEL_1
 10
277.5897136930344
 20
67.36082821789259
 30
0.0
  0
VERTEX
  5
4CA
  8
CK_LEVEL_1
 10
280.4280148975396
 20
72.27691011127936
 30
0.0
 42
-0.5773502691860283
  0
VERTEX
  5
4CB
  8
CK_LEVEL_1
 10
280.891624487548
 20
72.27691011127936
 30
0.0
  0
VERTEX
  5
4CC
  8
CK_LEVEL_1
 10
283.7299256920531
 20
67.36082821789259
 30
0.0
 42
-0.5773502691813766
  0
VERTEX
  5
4CD
  8
CK_LEVEL_1
 10
283.4981208970489
 20
66.95933053550716
 30
0.0
  0
VERTEX
  5
4CE
  8
CK_LEVEL_1
 10
277.8215184880387
 20
66.95933053550716
 30
0.0
 42
-0.5773502691973786
  0
SEQEND
  5
E4A
  8
CK_LEVEL_1
  0
POLYLINE
  5
CA
  8
CK_LEVEL_1
 66
     1
 10
0.0
 20
0.0
 30
0.0
 70
     1
  0
VERTEX
  5
4CF
  8
CK_LEVEL_1
 10
283.7771250909295
 20
66.79094986040828
 30
0.0
  0
VERTEX
  5
4D0
  8
CK_LEVEL_1
 10
280.4117385415134
 20
72.59742806849643
 30
0.0
  0
VERTEX
  5
4D1
  8
CK_LEVEL_1
 10
280.39642709676
 20
72.58872575335077
 30
0.0
  0
VERTEX
  5
4D2
  8
CK_LEVEL_1
 10
280.3814285798816
 20
72.57951300988067
 30
0.0
  0
VERTEX
  5
4D3
  8
CK_LEVEL_1
 10
280.3667558511928
 20
72.56979871395048
 30
0.0
  0
VERTEX
  5
4D4
  8
CK_LEVEL_1
 10
280.352421771008
 20
72.55959174142457
 30
0.0
  0
VERTEX
  5
4D5
  8
CK_LEVEL_1
 10
280.3384391996418
 20
72.54890096816732
 30
0.0
  0
VERTEX
  5
4D6
  8
CK_LEVEL_1
 10
280.3248209974087
 20
72.53773527004309
 30
0.0
  0
VERTEX
  5
4D7
  8
CK_LEVEL_1
 10
280.3115800246233
 20
72.52610352291626
 30
0.0
  0
VERTEX
  5
4D8
  8
CK_LEVEL_1
 10
280.2987291416
 20
72.51401460265123
 30
0.0
  0
VERTEX
  5
4D9
  8
CK_LEVEL_1
 10
280.2862812086535
 20
72.50147738511234
 30
0.0
  0
VERTEX
  5
4DA
  8
CK_LEVEL_1
 10
280.274249086098
 20
72.488500746164
 30
0.0
  0
VERTEX
  5
4DB
  8
CK_LEVEL_1
 10
280.2626456342483
 20
72.47509356167055
 30
0.0
  0
VERTEX
  5
4DC
  8
CK_LEVEL_1
 10
280.2514837134188
 20
72.46126470749638
 30
0.0
  0
VERTEX
  5
4DD
  8
CK_LEVEL_1
 10
280.2407761839241
 20
72.44702305950585
 30
0.0
  0
VERTEX
  5
4DE
  8
CK_LEVEL_1
 10
280.2305359060787
 20
72.43237749356337
 30
0.0
  0
VERTEX
  5
4DF
  8
CK_LEVEL_1
 10
280.220775740197
 20
72.41733688553326
 30
0.0
  0
VERTEX
  5
4E0
  8
CK_LEVEL_1
 10
280.2115085465938
 20
72.40191011127995
 30
0.0
  0
VERTEX
  5
4E1
  8
CK_LEVEL_1
 10
279.2066957227325
 20
70.66152324825545
 30
0.0
  0
VERTEX
  5
4E2
  8
CK_LEVEL_1
 10
279.6393911100674
 20
69.93359967254348
 30
0.0
 42
-0.5781012652370806
  0
VERTEX
  5
4E3
  8
CK_LEVEL_1
 10
279.4231668399505
 20
69.55811236237864
 30
0.0
  0
VERTEX
  5
4E4
  8
CK_LEVEL_1
 10
278.5737864086221
 20
69.56529215963788
 30
0.0
  0
VERTEX
  5
4E5
  8
CK_LEVEL_1
 10
277.4136225975525
 20
67.55582949376374
 30
0.0
  0
VERTEX
  5
4E6
  8
CK_LEVEL_1
 10
280.8740594268822
 20
67.55811236237862
 30
0.0
 42
-0.2673458076491258
  0
VERTEX
  5
4E7
  8
CK_LEVEL_1
 10
281.090283703692
 20
67.43359966101109
 30
0.0
  0
VERTEX
  5
4E8
  8
CK_LEVEL_1
 10
281.5086877230763
 20
66.7093305355071
 30
0.0
  0
VERTEX
  5
4E9
  8
CK_LEVEL_1
 10
283.4981208970501
 20
66.70933053550716
 30
0.0
  0
VERTEX
  5
4EA
  8
CK_LEVEL_1
 10
283.5168289276932
 20
66.70966809172774
 30
0.0
  0
VERTEX
  5
4EB
  8
CK_LEVEL_1
 10
283.5354418011254
 20
66.71067576552683
 30
0.0
  0
VERTEX
  5
4EC
  8
CK_LEVEL_1
 10
283.5539436147916
 20
66.71234606461152
 30
0.0
  0
VERTEX
  5
4ED
  8
CK_LEVEL_1
 10
283.5723184661358
 20
66.71467149668887
 30
0.0
  0
VERTEX
  5
4EE
  8
CK_LEVEL_1
 10
283.5905504526025
 20
66.71764456946588
 30
0.0
  0
VERTEX
  5
4EF
  8
CK_LEVEL_1
 10
283.6086236716362
 20
66.72125779064964
 30
0.0
  0
VERTEX
  5
4F0
  8
CK_LEVEL_1
 10
283.6265222206814
 20
66.72550366794718
 30
0.0
  0
VERTEX
  5
4F1
  8
CK_LEVEL_1
 10
283.6442301971823
 20
66.73037470906556
 30
0.0
  0
VERTEX
  5
4F2
  8
CK_LEVEL_1
 10
283.6617316985834
 20
66.7358634217118
 30
0.0
  0
VERTEX
  5
4F3
  8
CK_LEVEL_1
 10
283.6790108223292
 20
66.74196231359298
 30
0.0
  0
VERTEX
  5
4F4
  8
CK_LEVEL_1
 10
283.6960516658641
 20
66.74866389241615
 30
0.0
  0
VERTEX
  5
4F5
  8
CK_LEVEL_1
 10
283.7128383266325
 20
66.75596066588832
 30
0.0
  0
VERTEX
  5
4F6
  8
CK_LEVEL_1
 10
283.7293549020788
 20
66.76384514171659
 30
0.0
  0
VERTEX
  5
4F7
  8
CK_LEVEL_1
 10
283.7455854896475
 20
66.77230982760797
 30
0.0
  0
VERTEX
  5
4F8
  8
CK_LEVEL_1
 10
283.7615141867829
 20
66.7813472312695
 30
0.0
  0
SEQEND
  5
E4B
  8
CK_LEVEL_1
  0
POLYLINE
  5
CB
  8
CK_LEVEL_1
 66
     1
 10
0.0
 20
0.0
 30
0.0
 70
     1
  0
VERTEX
  5
4F9
  8
CK_LEVEL_1
 10
288.7519915825656
 20
53.94236677115953
 30
0.0
 42
-0.4142135623730951
  0
VERTEX
  5
4FA
  8
CK_LEVEL_1
 10
289.3269915825657
 20
53.36736677115953
 30
0.0
 42
-0.4142135623730951
  0
VERTEX
  5
4FB
  8
CK_LEVEL_1
 10
288.7519915825656
 20
52.79236677115952
 30
0.0
 42
-0.4142135623730951
  0
VERTEX
  5
4FC
  8
CK_LEVEL_1
 10
288.1769915825656
 20
53.36736677115953
 30
0.0
 42
-0.4142135623730951
  0
SEQEND
  5
E4C
  8
CK_LEVEL_1
  0
POLYLINE
  5
CC
  8
CK_LEVEL_1
 66
     1
 10
0.0
 20
0.0
 30
0.0
 70
     1
  0
VERTEX
  5
4FD
  8
CK_LEVEL_1
 10
284.7809416607849
 20
52.18651665578068
 30
0.0
  0
VERTEX
  5
4FE
  8
CK_LEVEL_1
 10
288.3892093033311
 20
58.43621953997742
 30
0.0
 42
-0.5773502691860283
  0
VERTEX
  5
4FF
  8
CK_LEVEL_1
 10
288.9785856104498
 20
58.43621953997742
 30
0.0
  0
VERTEX
  5
500
  8
CK_LEVEL_1
 10
292.5868532529959
 20
52.18651665578068
 30
0.0
 42
-0.5773502691813766
  0
VERTEX
  5
501
  8
CK_LEVEL_1
 10
292.2921650994367
 20
51.67610180142726
 30
0.0
  0
VERTEX
  5
502
  8
CK_LEVEL_1
 10
285.0756298143443
 20
51.67610180142726
 30
0.0
 42
-0.5773502691973786
  0
SEQEND
  5
E4D
  8
CK_LEVEL_1
  0
POLYLINE
  5
CD
  8
CK_LEVEL_1
 66
     1
 10
0.0
 20
0.0
 30
0.0
 70
     1
  0
VERTEX
  5
503
  8
CK_LEVEL_1
 10
288.4164354816934
 20
58.79319554410873
 30
0.0
  0
VERTEX
  5
504
  8
CK_LEVEL_1
 10
290.6197297490662
 20
54.99187946888166
 30
0.0
 42
0.267345803134228
  0
VERTEX
  5
505
  8
CK_LEVEL_1
 10
290.8359540237605
 20
54.86736677115953
 30
0.0
  0
VERTEX
  5
506
  8
CK_LEVEL_1
 10
291.3239331067534
 20
54.87395851497512
 30
0.0
  0
VERTEX
  5
507
  8
CK_LEVEL_1
 10
292.803359603943
 20
52.31151665577907
 30
0.0
  0
VERTEX
  5
508
  8
CK_LEVEL_1
 10
292.8106068593737
 20
52.29859401442851
 30
0.0
  0
VERTEX
  5
509
  8
CK_LEVEL_1
 10
292.8175045015809
 20
52.28554145853027
 30
0.0
  0
VERTEX
  5
50A
  8
CK_LEVEL_1
 10
292.8240527476826
 20
52.27236549859003
 30
0.0
  0
VERTEX
  5
50B
  8
CK_LEVEL_1
 10
292.8302518147967
 20
52.25907264511352
 30
0.0
  0
VERTEX
  5
50C
  8
CK_LEVEL_1
 10
292.8361019200414
 20
52.24566940860642
 30
0.0
  0
VERTEX
  5
50D
  8
CK_LEVEL_1
 10
292.8416032805347
 20
52.23216229957444
 30
0.0
  0
VERTEX
  5
50E
  8
CK_LEVEL_1
 10
292.8467561133947
 20
52.21855782852327
 30
0.0
  0
VERTEX
  5
50F
  8
CK_LEVEL_1
 10
292.8515606357394
 20
52.20486250595863
 30
0.0
  0
VERTEX
  5
510
  8
CK_LEVEL_1
 10
292.8560170646868
 20
52.19108284238621
 30
0.0
  0
VERTEX
  5
511
  8
CK_LEVEL_1
 10
292.860125617355
 20
52.17722534831172
 30
0.0
  0
VERTEX
  5
512
  8
CK_LEVEL_1
 10
292.8638865108621
 20
52.16329653424086
 30
0.0
  0
VERTEX
  5
513
  8
CK_LEVEL_1
 10
292.867299962326
 20
52.14930291067934
 30
0.0
  0
VERTEX
  5
514
  8
CK_LEVEL_1
 10
292.8703661888649
 20
52.13525098813284
 30
0.0
  0
VERTEX
  5
515
  8
CK_LEVEL_1
 10
292.8730854075968
 20
52.12114727710708
 30
0.0
  0
VERTEX
  5
516
  8
CK_LEVEL_1
 10
292.8754578356397
 20
52.10699828810777
 30
0.0
  0
VERTEX
  5
517
  8
CK_LEVEL_1
 10
292.8774836901118
 20
52.09281053164059
 30
0.0
  0
VERTEX
  5
518
  8
CK_LEVEL_1
 10
292.879163188131
 20
52.07859051821125
 30
0.0
  0
VERTEX
  5
519
  8
CK_LEVEL_1
 10
292.8804965468153
 20
52.06434475832546
 30
0.0
  0
VERTEX
  5
51A
  8
CK_LEVEL_1
 10
292.8814839832828
 20
52.05007976248892
 30
0.0
  0
VERTEX
  5
51B
  8
CK_LEVEL_1
 10
292.8821257146517
 20
52.03580204120733
 30
0.0
  0
VERTEX
  5
51C
  8
CK_LEVEL_1
 10
292.8824219580399
 20
52.0215181049864
 30
0.0
  0
VERTEX
  5
51D
  8
CK_LEVEL_1
 10
292.8823729305654
 20
52.00723446433182
 30
0.0
  0
VERTEX
  5
51E
  8
CK_LEVEL_1
 10
292.8819788493463
 20
51.99295762974929
 30
0.0
  0
VERTEX
  5
51F
  8
CK_LEVEL_1
 10
292.8812399315008
 20
51.97869411174453
 30
0.0
  0
VERTEX
  5
520
  8
CK_LEVEL_1
 10
292.8801563941469
 20
51.96445042082323
 30
0.0
  0
VERTEX
  5
521
  8
CK_LEVEL_1
 10
292.8787284544023
 20
51.9502330674911
 30
0.0
  0
VERTEX
  5
522
  8
CK_LEVEL_1
 10
292.8769563293855
 20
51.93604856225383
 30
0.0
  0
VERTEX
  5
523
  8
CK_LEVEL_1
 10
292.8748402362144
 20
51.92190341561712
 30
0.0
  0
VERTEX
  5
524
  8
CK_LEVEL_1
 10
292.8723803920069
 20
51.9078041380867
 30
0.0
  0
VERTEX
  5
525
  8
CK_LEVEL_1
 10
292.8695770138813
 20
51.89375724016824
 30
0.0
  0
VERTEX
  5
526
  8
CK_LEVEL_1
 10
292.8664303189555
 20
51.87976923236747
 30
0.0
  0
VERTEX
  5
527
  8
CK_LEVEL_1
 10
292.8629405243474
 20
51.86584662519006
 30
0.0
  0
VERTEX
  5
528
  8
CK_LEVEL_1
 10
284.5055388603606
 20
51.86198909200425
 30
0.0
  0
VERTEX
  5
529
  8
CK_LEVEL_1
 10
284.5020017028518
 20
51.87545691502028
 30
0.0
  0
VERTEX
  5
52A
  8
CK_LEVEL_1
 10
284.4987793284993
 20
51.88901795291588
 30
0.0
  0
VERTEX
  5
52B
  8
CK_LEVEL_1
 10
284.4958749536424
 20
51.90266662557955
 30
0.0
  0
VERTEX
  5
52C
  8
CK_LEVEL_1
 10
284.493291794621
 20
51.91639735289981
 30
0.0
  0
VERTEX
  5
52D
  8
CK_LEVEL_1
 10
284.4910330677743
 20
51.93020455476517
 30
0.0
  0
VERTEX
  5
52E
  8
CK_LEVEL_1
 10
284.4891019894422
 20
51.94408265106412
 30
0.0
  0
VERTEX
  5
52F
  8
CK_LEVEL_1
 10
284.4875017759642
 20
51.95802606168519
 30
0.0
  0
VERTEX
  5
530
  8
CK_LEVEL_1
 10
284.4862356436798
 20
51.97202920651686
 30
0.0
  0
VERTEX
  5
531
  8
CK_LEVEL_1
 10
284.4853068089286
 20
51.98608650544767
 30
0.0
  0
VERTEX
  5
532
  8
CK_LEVEL_1
 10
284.4847184880501
 20
52.00019237836611
 30
0.0
  0
VERTEX
  5
533
  8
CK_LEVEL_1
 10
284.4844738973841
 20
52.01434124516068
 30
0.0
  0
VERTEX
  5
534
  8
CK_LEVEL_1
 10
284.4845762532699
 20
52.0285275257199
 30
0.0
  0
VERTEX
  5
535
  8
CK_LEVEL_1
 10
284.4850287720472
 20
52.04274563993228
 30
0.0
  0
VERTEX
  5
536
  8
CK_LEVEL_1
 10
284.4858346700556
 20
52.05699000768632
 30
0.0
  0
VERTEX
  5
537
  8
CK_LEVEL_1
 10
284.4869971636348
 20
52.07125504887053
 30
0.0
  0
VERTEX
  5
538
  8
CK_LEVEL_1
 10
284.4885194691241
 20
52.08553518337341
 30
0.0
  0
VERTEX
  5
539
  8
CK_LEVEL_1
 10
284.4904048028632
 20
52.09982483108348
 30
0.0
  0
VERTEX
  5
53A
  8
CK_LEVEL_1
 10
284.4926563811918
 20
52.11411841188924
 30
0.0
  0
VERTEX
  5
53B
  8
CK_LEVEL_1
 10
284.4952774204492
 20
52.12841034567919
 30
0.0
  0
VERTEX
  5
53C
  8
CK_LEVEL_1
 10
284.4982711369752
 20
52.14269505234186
 30
0.0
  0
VERTEX
  5
53D
  8
CK_LEVEL_1
 10
284.5016407471094
 20
52.15696695176575
 30
0.0
  0
VERTEX
  5
53E
  8
CK_LEVEL_1
 10
284.5053894671912
 20
52.17122046383936
 30
0.0
  0
VERTEX
  5
53F
  8
CK_LEVEL_1
 10
284.5095205135603
 20
52.1854500084512
 30
0.0
  0
VERTEX
  5
540
  8
CK_LEVEL_1
 10
284.5140371025563
 20
52.19965000548977
 30
0.0
  0
VERTEX
  5
541
  8
CK_LEVEL_1
 10
284.5189424505187
 20
52.21381487484358
 30
0.0
  0
VERTEX
  5
542
  8
CK_LEVEL_1
 10
284.524239773787
 20
52.22793903640115
 30
0.0
  0
VERTEX
  5
543
  8
CK_LEVEL_1
 10
284.529932288701
 20
52.24201691005099
 30
0.0
  0
VERTEX
  5
544
  8
CK_LEVEL_1
 10
284.5360232116001
 20
52.25604291568159
 30
0.0
  0
VERTEX
  5
545
  8
CK_LEVEL_1
 10
284.5425157588239
 20
52.27001147318147
 30
0.0
  0
VERTEX
  5
546
  8
CK_LEVEL_1
 10
284.549413146712
 20
52.28391700243913
 30
0.0
  0
VERTEX
  5
547
  8
CK_LEVEL_1
 10
284.5567185916041
 20
52.29775392334307
 30
0.0
  0
VERTEX
  5
548
  8
CK_LEVEL_1
 10
284.5644353098395
 20
52.31151665578182
 30
0.0
  0
VERTEX
  5
549
  8
CK_LEVEL_1
 10
286.0409044302448
 20
54.86883618813203
 30
0.0
  0
VERTEX
  5
54A
  8
CK_LEVEL_1
 10
287.945436578405
 20
54.86736677115953
 30
0.0
 42
0.578101247447213
  0
VERTEX
  5
54B
  8
CK_LEVEL_1
 10
288.1616608552148
 20
55.242854069792
 30
0.0
  0
VERTEX
  5
54C
  8
CK_LEVEL_1
 10
287.201801615327
 20
56.87956909505746
 30
0.0
  0
VERTEX
  5
54D
  8
CK_LEVEL_1
 10
288.1727029523854
 20
58.56121953997801
 30
0.0
  0
VERTEX
  5
54E
  8
CK_LEVEL_1
 10
288.1844356793906
 20
58.58071428764185
 30
0.0
  0
VERTEX
  5
54F
  8
CK_LEVEL_1
 10
288.1967257813178
 20
58.59954298351443
 30
0.0
  0
VERTEX
  5
550
  8
CK_LEVEL_1
 10
288.2095538365717
 20
58.61770560305371
 30
0.0
  0
VERTEX
  5
551
  8
CK_LEVEL_1
 10
288.2229004235569
 20
58.63520212171764
 30
0.0
  0
VERTEX
  5
552
  8
CK_LEVEL_1
 10
288.2367461206779
 20
58.65203251496421
 30
0.0
  0
VERTEX
  5
553
  8
CK_LEVEL_1
 10
288.2510715063394
 20
58.66819675825137
 30
0.0
  0
VERTEX
  5
554
  8
CK_LEVEL_1
 10
288.265857158946
 20
58.6836948270371
 30
0.0
  0
VERTEX
  5
555
  8
CK_LEVEL_1
 10
288.2810836569022
 20
58.69852669677937
 30
0.0
  0
VERTEX
  5
556
  8
CK_LEVEL_1
 10
288.2967315786127
 20
58.71269234293614
 30
0.0
  0
VERTEX
  5
557
  8
CK_LEVEL_1
 10
288.3127815024822
 20
58.72619174096536
 30
0.0
  0
VERTEX
  5
558
  8
CK_LEVEL_1
 10
288.3292140069151
 20
58.73902486632502
 30
0.0
  0
VERTEX
  5
559
  8
CK_LEVEL_1
 10
288.3460096703161
 20
58.75119169447309
 30
0.0
  0
VERTEX
  5
55A
  8
CK_LEVEL_1
 10
288.3631490710899
 20
58.76269220086753
 30
0.0
  0
VERTEX
  5
55B
  8
CK_LEVEL_1
 10
288.3806127876409
 20
58.7735263609663
 30
0.0
  0
VERTEX
  5
55C
  8
CK_LEVEL_1
 10
288.3983813983739
 20
58.78369415022738
 30
0.0
  0
SEQEND
  5
E4E
  8
CK_LEVEL_1
  0
POLYLINE
  5
CE
  8
CK_LEVEL_1
 66
     1
 10
0.0
 20
0.0
 30
0.0
 70
     1
  0
VERTEX
  5
55D
  8
CK_LEVEL_1
 10
258.1348745276244
 20
53.94236677115953
 30
0.0
 42
0.4142135623730951
  0
VERTEX
  5
55E
  8
CK_LEVEL_1
 10
257.5598745276243
 20
53.36736677115953
 30
0.0
 42
0.4142135623730951
  0
VERTEX
  5
55F
  8
CK_LEVEL_1
 10
258.1348745276244
 20
52.79236677115952
 30
0.0
 42
0.4142135623730951
  0
VERTEX
  5
560
  8
CK_LEVEL_1
 10
258.7098745276244
 20
53.36736677115953
 30
0.0
 42
0.4142135623730951
  0
SEQEND
  5
E4F
  8
CK_LEVEL_1
  0
POLYLINE
  5
CF
  8
CK_LEVEL_1
 66
     1
 10
0.0
 20
0.0
 30
0.0
 70
     1
  0
VERTEX
  5
561
  8
CK_LEVEL_1
 10
288.7548745276247
 20
53.94236677115953
 30
0.0
 42
0.4142135623730951
  0
VERTEX
  5
562
  8
CK_LEVEL_1
 10
288.1798745276246
 20
53.36736677115953
 30
0.0
 42
0.4142135623730951
  0
VERTEX
  5
563
  8
CK_LEVEL_1
 10
288.7548745276247
 20
52.79236677115952
 30
0.0
 42
0.4142135623730951
  0
VERTEX
  5
564
  8
CK_LEVEL_1
 10
289.3298745276247
 20
53.36736677115953
 30
0.0
 42
0.4142135623730951
  0
SEQEND
  5
E50
  8
CK_LEVEL_1
  0
POLYLINE
  5
D0
  8
CK_LEVEL_1
 66
     1
 10
0.0
 20
0.0
 30
0.0
 70
     1
  0
VERTEX
  5
565
  8
CK_LEVEL_1
 10
281.6010815276246
 20
68.67443877115957
 30
0.0
 42
0.4142135623730951
  0
VERTEX
  5
566
  8
CK_LEVEL_1
 10
281.4710815276246
 20
68.54443877115956
 30
0.0
 42
0.4142135623730951
  0
VERTEX
  5
567
  8
CK_LEVEL_1
 10
281.6010815276246
 20
68.41443877115957
 30
0.0
 42
0.4142135623730951
  0
VERTEX
  5
568
  8
CK_LEVEL_1
 10
281.7310815276246
 20
68.54443877115956
 30
0.0
 42
0.4142135623730951
  0
SEQEND
  5
E51
  8
CK_LEVEL_1
  0
POLYLINE
  5
D1
  8
CK_LEVEL_1
 66
     1
 10
0.0
 20
0.0
 30
0.0
 70
     1
  0
VERTEX
  5
569
  8
CK_LEVEL_1
 10
252.6948745276243
 20
53.49736677115953
 30
0.0
 42
0.4142135623730951
  0
VERTEX
  5
56A
  8
CK_LEVEL_1
 10
252.5648745276243
 20
53.36736677115953
 30
0.0
 42
0.4142135623730951
  0
VERTEX
  5
56B
  8
CK_LEVEL_1
 10
252.6948745276243
 20
53.23736677115952
 30
0.0
 42
0.4142135623730951
  0
VERTEX
  5
56C
  8
CK_LEVEL_1
 10
252.8248745276243
 20
53.36736677115953
 30
0.0
 42
0.4142135623730951
  0
SEQEND
  5
E52
  8
CK_LEVEL_1
  0
POLYLINE
  5
D2
  8
CK_LEVEL_1
 66
     1
 10
0.0
 20
0.0
 30
0.0
 70
     1
  0
VERTEX
  5
56D
  8
CK_LEVEL_1
 10
265.2886675276245
 20
68.67443877115957
 30
0.0
 42
0.4142135623730951
  0
VERTEX
  5
56E
  8
CK_LEVEL_1
 10
265.1586675276245
 20
68.54443877115956
 30
0.0
 42
0.4142135623730951
  0
VERTEX
  5
56F
  8
CK_LEVEL_1
 10
265.2886675276245
 20
68.41443877115957
 30
0.0
 42
0.4142135623730951
  0
VERTEX
  5
570
  8
CK_LEVEL_1
 10
265.4186675276245
 20
68.54443877115956
 30
0.0
 42
0.4142135623730951
  0
SEQEND
  5
E53
  8
CK_LEVEL_1
  0
POLYLINE
  5
D3
  8
CK_LEVEL_1
 66
     1
 10
0.0
 20
0.0
 30
0.0
 70
     1
  0
VERTEX
  5
571
  8
CK_LEVEL_1
 10
274.4448745276246
 20
77.95407224767442
 30
0.0
  0
VERTEX
  5
572
  8
CK_LEVEL_1
 10
274.4448745276246
 20
69.79443877115958
 30
0.0
 42
0.4142135623734191
  0
VERTEX
  5
573
  8
CK_LEVEL_1
 10
274.6948745276246
 20
69.54443877115958
 30
0.0
  0
VERTEX
  5
574
  8
CK_LEVEL_1
 10
279.430376496692
 20
69.54443877115958
 30
0.0
 42
0.5781012652363309
  0
VERTEX
  5
575
  8
CK_LEVEL_1
 10
279.6466007668089
 20
69.91992608132442
 30
0.0
  0
VERTEX
  5
576
  8
CK_LEVEL_1
 10
274.9110987977415
 20
78.07955955783925
 30
0.0
 42
0.7664327835817061
  0
SEQEND
  5
E54
  8
CK_LEVEL_1
  0
POLYLINE
  5
D4
  8
CK_LEVEL_1
 66
     1
 10
0.0
 20
0.0
 30
0.0
 70
     1
  0
VERTEX
  5
577
  8
CK_LEVEL_1
 10
271.9786502575076
 20
78.07955955783925
 30
0.0
  0
VERTEX
  5
578
  8
CK_LEVEL_1
 10
267.2431482884402
 20
69.91992608132442
 30
0.0
 42
0.5781012652370806
  0
VERTEX
  5
579
  8
CK_LEVEL_1
 10
267.4593725585572
 20
69.54443877115958
 30
0.0
  0
VERTEX
  5
57A
  8
CK_LEVEL_1
 10
272.1948745276246
 20
69.54443877115958
 30
0.0
 42
0.4142135623731775
  0
VERTEX
  5
57B
  8
CK_LEVEL_1
 10
272.4448745276246
 20
69.79443877115958
 30
0.0
  0
VERTEX
  5
57C
  8
CK_LEVEL_1
 10
272.4448745276246
 20
77.95407224767442
 30
0.0
 42
0.766432783581653
  0
SEQEND
  5
E55
  8
CK_LEVEL_1
  0
POLYLINE
  5
D5
  8
CK_LEVEL_1
 66
     1
 10
0.0
 20
0.0
 30
0.0
 70
     1
  0
VERTEX
  5
57D
  8
CK_LEVEL_1
 10
294.1948745276247
 20
53.49736677115953
 30
0.0
 42
0.4142135623730951
  0
VERTEX
  5
57E
  8
CK_LEVEL_1
 10
294.0648745276247
 20
53.36736677115953
 30
0.0
 42
0.4142135623730951
  0
VERTEX
  5
57F
  8
CK_LEVEL_1
 10
294.1948745276247
 20
53.23736677115952
 30
0.0
 42
0.4142135623730951
  0
VERTEX
  5
580
  8
CK_LEVEL_1
 10
294.3248745276247
 20
53.36736677115953
 30
0.0
 42
0.4142135623730951
  0
SEQEND
  5
E56
  8
CK_LEVEL_1
  0
POLYLINE
  5
D6
  8
CK_LEVEL_1
 66
     1
 10
0.0
 20
0.0
 30
0.0
 70
     1
  0
VERTEX
  5
581
  8
CK_LEVEL_1
 10
273.4448745276246
 20
81.18736677115966
 30
0.0
 42
0.4142135623730951
  0
VERTEX
  5
582
  8
CK_LEVEL_1
 10
273.1248745276246
 20
80.86736677115965
 30
0.0
 42
0.4142135623730951
  0
VERTEX
  5
583
  8
CK_LEVEL_1
 10
273.4448745276246
 20
80.54736677115966
 30
0.0
 42
0.4142135623730951
  0
VERTEX
  5
584
  8
CK_LEVEL_1
 10
273.7648745276246
 20
80.86736677115965
 30
0.0
 42
0.4142135623730951
  0
SEQEND
  5
E57
  8
CK_LEVEL_1
  0
POLYLINE
  5
D7
  8
CK_LEVEL_1
 66
     1
 10
0.0
 20
0.0
 30
0.0
  0
VERTEX
  5
585
  8
CK_LEVEL_1
 10
266.3494011177847
 20
72.36439720343573
 30
0.0
  0
VERTEX
  5
586
  8
CK_LEVEL_1
 10
263.0424980293088
 20
66.66634880483109
 30
0.0
  0
SEQEND
  5
E58
  8
CK_LEVEL_1
  0
POLYLINE
  5
D8
  8
CK_LEVEL_1
 66
     1
 10
0.0
 20
0.0
 30
0.0
  0
VERTEX
  5
587
  8
CK_LEVEL_1
 10
269.2779735406854
 20
67.54443877115956
 30
0.0
  0
VERTEX
  5
588
  8
CK_LEVEL_1
 10
266.0084799716255
 20
67.54443877115956
 30
0.0
 42
0.2673458076491258
  0
VERTEX
  5
589
  8
CK_LEVEL_1
 10
265.7922556948157
 20
67.41992606979203
 30
0.0
  0
VERTEX
  5
58A
  8
CK_LEVEL_1
 10
265.5187533933974
 20
66.94866054750834
 30
0.0
  0
SEQEND
  5
E59
  8
CK_LEVEL_1
  0
POLYLINE
  5
D9
  8
CK_LEVEL_1
 66
     1
 10
0.0
 20
0.0
 30
0.0
  0
VERTEX
  5
58B
  8
CK_LEVEL_1
 10
269.2779735406854
 20
67.54443877115956
 30
0.0
  0
VERTEX
  5
58C
  8
CK_LEVEL_1
 10
266.086782095065
 20
67.54443877115956
 30
0.0
 42
0.2673458076491258
  0
VERTEX
  5
58D
  8
CK_LEVEL_1
 10
265.8705578182551
 20
67.41992606979203
 30
0.0
  0
VERTEX
  5
58E
  8
CK_LEVEL_1
 10
265.4519662367568
 20
66.69866054750801
 30
0.0
  0
SEQEND
  5
E5A
  8
CK_LEVEL_1
  0
POLYLINE
  5
DA
  8
CK_LEVEL_1
 66
     1
 10
0.0
 20
0.0
 30
0.0
 70
     1
  0
VERTEX
  5
58F
  8
CK_LEVEL_1
 10
277.347879622305
 20
52.18651853120411
 30
0.0
  0
VERTEX
  5
590
  8
CK_LEVEL_1
 10
273.7396119797588
 20
58.43622141540085
 30
0.0
 42
0.5773502691860283
  0
VERTEX
  5
591
  8
CK_LEVEL_1
 10
273.1502356726401
 20
58.43622141540085
 30
0.0
  0
VERTEX
  5
592
  8
CK_LEVEL_1
 10
269.541968030094
 20
52.18651853120411
 30
0.0
 42
0.5773502691813766
  0
VERTEX
  5
593
  8
CK_LEVEL_1
 10
269.8366561836533
 20
51.67610367685069
 30
0.0
  0
VERTEX
  5
594
  8
CK_LEVEL_1
 10
277.0531914687456
 20
51.67610367685069
 30
0.0
 42
0.5773502691973786
  0
SEQEND
  5
E5B
  8
CK_LEVEL_1
  0
POLYLINE
  5
DB
  8
CK_LEVEL_1
 66
     1
 10
0.0
 20
0.0
 30
0.0
 70
     1
  0
VERTEX
  5
595
  8
CK_LEVEL_1
 10
277.6232007528147
 20
51.86240717154116
 30
0.0
  0
VERTEX
  5
596
  8
CK_LEVEL_1
 10
277.6267711145451
 20
51.87635771467146
 30
0.0
  0
VERTEX
  5
597
  8
CK_LEVEL_1
 10
277.6299984942059
 20
51.89038012236026
 30
0.0
  0
VERTEX
  5
598
  8
CK_LEVEL_1
 10
277.6328822975937
 20
51.9044677512927
 30
0.0
  0
VERTEX
  5
599
  8
CK_LEVEL_1
 10
277.6354219305052
 20
51.91861395815398
 30
0.0
  0
VERTEX
  5
59A
  8
CK_LEVEL_1
 10
277.637616798737
 20
51.93281209962928
 30
0.0
  0
VERTEX
  5
59B
  8
CK_LEVEL_1
 10
277.639466308086
 20
51.94705553240378
 30
0.0
  0
VERTEX
  5
59C
  8
CK_LEVEL_1
 10
277.6409698643488
 20
51.96133761316264
 30
0.0
  0
VERTEX
  5
59D
  8
CK_LEVEL_1
 10
277.6421268733221
 20
51.97565169859107
 30
0.0
  0
VERTEX
  5
59E
  8
CK_LEVEL_1
 10
277.6429367408025
 20
51.98999114537422
 30
0.0
  0
VERTEX
  5
59F
  8
CK_LEVEL_1
 10
277.6433988725868
 20
52.0043493101973
 30
0.0
  0
VERTEX
  5
5A0
  8
CK_LEVEL_1
 10
277.6435126744718
 20
52.01871954974546
 30
0.0
  0
VERTEX
  5
5A1
  8
CK_LEVEL_1
 10
277.6432775522541
 20
52.03309522070388
 30
0.0
  0
VERTEX
  5
5A2
  8
CK_LEVEL_1
 10
277.6426929117303
 20
52.04746967975777
 30
0.0
  0
VERTEX
  5
5A3
  8
CK_LEVEL_1
 10
277.6417581586973
 20
52.06183628359227
 30
0.0
  0
VERTEX
  5
5A4
  8
CK_LEVEL_1
 10
277.6404726989516
 20
52.0761883888926
 30
0.0
  0
VERTEX
  5
5A5
  8
CK_LEVEL_1
 10
277.6388359382901
 20
52.0905193523439
 30
0.0
  0
VERTEX
  5
5A6
  8
CK_LEVEL_1
 10
277.6368472825093
 20
52.10482253063137
 30
0.0
  0
VERTEX
  5
5A7
  8
CK_LEVEL_1
 10
277.634506137406
 20
52.11909128044019
 30
0.0
  0
VERTEX
  5
5A8
  8
CK_LEVEL_1
 10
277.631811908777
 20
52.13331895845553
 30
0.0
  0
VERTEX
  5
5A9
  8
CK_LEVEL_1
 10
277.6287640024188
 20
52.14749892136258
 30
0.0
  0
VERTEX
  5
5AA
  8
CK_LEVEL_1
 10
277.6253618241283
 20
52.16162452584651
 30
0.0
  0
VERTEX
  5
5AB
  8
CK_LEVEL_1
 10
277.621604779702
 20
52.17568912859251
 30
0.0
  0
VERTEX
  5
5AC
  8
CK_LEVEL_1
 10
277.6174922749368
 20
52.18968608628575
 30
0.0
  0
VERTEX
  5
5AD
  8
CK_LEVEL_1
 10
277.6130237156293
 20
52.2036087556114
 30
0.0
  0
VERTEX
  5
5AE
  8
CK_LEVEL_1
 10
277.6081985075762
 20
52.21745049325466
 30
0.0
  0
VERTEX
  5
5AF
  8
CK_LEVEL_1
 10
277.6030160565741
 20
52.2312046559007
 30
0.0
  0
VERTEX
  5
5B0
  8
CK_LEVEL_1
 10
277.5974757684199
 20
52.24486460023469
 30
0.0
  0
VERTEX
  5
5B1
  8
CK_LEVEL_1
 10
277.5915770489102
 20
52.25842368294182
 30
0.0
  0
VERTEX
  5
5B2
  8
CK_LEVEL_1
 10
277.5853193038416
 20
52.27187526070726
 30
0.0
  0
VERTEX
  5
5B3
  8
CK_LEVEL_1
 10
277.578701939011
 20
52.28521269021621
 30
0.0
  0
VERTEX
  5
5B4
  8
CK_LEVEL_1
 10
277.5717243602151
 20
52.29842932815384
 30
0.0
  0
VERTEX
  5
5B5
  8
CK_LEVEL_1
 10
277.5643859732504
 20
52.31151853120532
 30
0.0
  0
VERTEX
  5
5B6
  8
CK_LEVEL_1
 10
276.0859878276881
 20
54.8721792331342
 30
0.0
  0
VERTEX
  5
5B7
  8
CK_LEVEL_1
 10
274.6948745276246
 20
54.86736677115953
 30
0.0
 42
-0.4142135623738916
  0
VERTEX
  5
5B8
  8
CK_LEVEL_1
 10
274.4448745276246
 20
55.11736677115953
 30
0.0
  0
VERTEX
  5
5B9
  8
CK_LEVEL_1
 10
274.4507405457831
 20
57.70451060834148
 30
0.0
  0
VERTEX
  5
5BA
  8
CK_LEVEL_1
 10
273.9561183307045
 20
58.56122141540145
 30
0.0
 42
0.5773502691860231
  0
VERTEX
  5
5BB
  8
CK_LEVEL_1
 10
272.9337293216943
 20
58.56122141540142
 30
0.0
  0
VERTEX
  5
5BC
  8
CK_LEVEL_1
 10
272.4326239412046
 20
57.69328143644753
 30
0.0
  0
VERTEX
  5
5BD
  8
CK_LEVEL_1
 10
272.4448745276246
 20
55.11736677115953
 30
0.0
 42
-0.4142135623732166
  0
VERTEX
  5
5BE
  8
CK_LEVEL_1
 10
272.1948745276246
 20
54.86736677115953
 30
0.0
  0
VERTEX
  5
5BF
  8
CK_LEVEL_1
 10
270.8035181369964
 20
54.8715874126529
 30
0.0
  0
VERTEX
  5
5C0
  8
CK_LEVEL_1
 10
269.3254616791464
 20
52.31151853120168
 30
0.0
  0
VERTEX
  5
5C1
  8
CK_LEVEL_1
 10
269.3181513638616
 20
52.29848021202081
 30
0.0
  0
VERTEX
  5
5C2
  8
CK_LEVEL_1
 10
269.3111973352891
 20
52.28531084997277
 30
0.0
  0
VERTEX
  5
5C3
  8
CK_LEVEL_1
 10
269.3045992730324
 20
52.27201711084749
 30
0.0
  0
VERTEX
  5
5C4
  8
CK_LEVEL_1
 10
269.2983568566952
 20
52.25860566043484
 30
0.0
  0
VERTEX
  5
5C5
  8
CK_LEVEL_1
 10
269.2924697658813
 20
52.24508316452472
 30
0.0
  0
VERTEX
  5
5C6
  8
CK_LEVEL_1
 10
269.2869376801939
 20
52.23145628890704
 30
0.0
  0
VERTEX
  5
5C7
  8
CK_LEVEL_1
 10
269.2817602792368
 20
52.21773169937169
 30
0.0
  0
VERTEX
  5
5C8
  8
CK_LEVEL_1
 10
269.2769372426135
 20
52.20391606170856
 30
0.0
  0
VERTEX
  5
5C9
  8
CK_LEVEL_1
 10
269.2724682499277
 20
52.19001604170756
 30
0.0
  0
VERTEX
  5
5CA
  8
CK_LEVEL_1
 10
269.2683529807831
 20
52.17603830515858
 30
0.0
  0
VERTEX
  5
5CB
  8
CK_LEVEL_1
 10
269.2645911147831
 20
52.16198951785152
 30
0.0
  0
VERTEX
  5
5CC
  8
CK_LEVEL_1
 10
269.2611823315314
 20
52.14787634557626
 30
0.0
  0
VERTEX
  5
5CD
  8
CK_LEVEL_1
 10
269.2581263106315
 20
52.13370545412273
 30
0.0
  0
VERTEX
  5
5CE
  8
CK_LEVEL_1
 10
269.2554227316871
 20
52.1194835092808
 30
0.0
  0
VERTEX
  5
5CF
  8
CK_LEVEL_1
 10
269.2530712743018
 20
52.10521717684038
 30
0.0
  0
VERTEX
  5
5D0
  8
CK_LEVEL_1
 10
269.251071618079
 20
52.09091312259136
 30
0.0
  0
VERTEX
  5
5D1
  8
CK_LEVEL_1
 10
269.2494234426225
 20
52.07657801232364
 30
0.0
  0
VERTEX
  5
5D2
  8
CK_LEVEL_1
 10
269.2481264275359
 20
52.06221851182711
 30
0.0
  0
VERTEX
  5
5D3
  8
CK_LEVEL_1
 10
269.2471802524227
 20
52.04784128689168
 30
0.0
  0
VERTEX
  5
5D4
  8
CK_LEVEL_1
 10
269.2465845968865
 20
52.03345300330724
 30
0.0
  0
VERTEX
  5
5D5
  8
CK_LEVEL_1
 10
269.2463391405309
 20
52.01906032686368
 30
0.0
  0
VERTEX
  5
5D6
  8
CK_LEVEL_1
 10
269.2464435629595
 20
52.00466992335092
 30
0.0
  0
VERTEX
  5
5D7
  8
CK_LEVEL_1
 10
269.246897543776
 20
51.99028845855883
 30
0.0
  0
VERTEX
  5
5D8
  8
CK_LEVEL_1
 10
269.2477007625839
 20
51.97592259827731
 30
0.0
  0
VERTEX
  5
5D9
  8
CK_LEVEL_1
 10
269.2488528989867
 20
51.96157900829628
 30
0.0
  0
VERTEX
  5
5DA
  8
CK_LEVEL_1
 10
269.2503536325882
 20
51.94726435440561
 30
0.0
  0
VERTEX
  5
5DB
  8
CK_LEVEL_1
 10
269.2522026429919
 20
51.93298530239521
 30
0.0
  0
VERTEX
  5
5DC
  8
CK_LEVEL_1
 10
269.2543996098015
 20
51.91874851805499
 30
0.0
  0
VERTEX
  5
5DD
  8
CK_LEVEL_1
 10
269.2569442126203
 20
51.90456066717482
 30
0.0
  0
VERTEX
  5
5DE
  8
CK_LEVEL_1
 10
269.2598361310522
 20
51.89042841554462
 30
0.0
  0
VERTEX
  5
5DF
  8
CK_LEVEL_1
 10
269.2630750447007
 20
51.87635842895428
 30
0.0
  0
VERTEX
  5
5E0
  8
CK_LEVEL_1
 10
269.2666606331693
 20
51.86235737319368
 30
0.0
  0
VERTEX
  5
5E1
  8
CK_LEVEL_1
 10
272.7248745276246
 20
51.86736677115952
 30
0.0
  0
VERTEX
  5
5E2
  8
CK_LEVEL_1
 10
272.7248745276246
 20
52.19059007586289
 30
0.0
 42
-1.0
  0
VERTEX
  5
5E3
  8
CK_LEVEL_1
 10
272.9016512229212
 20
52.36736677115953
 30
0.0
  0
VERTEX
  5
5E4
  8
CK_LEVEL_1
 10
273.9880978323279
 20
52.36736677115953
 30
0.0
 42
-1.0
  0
VERTEX
  5
5E5
  8
CK_LEVEL_1
 10
274.1648745276246
 20
52.19059007586289
 30
0.0
  0
VERTEX
  5
5E6
  8
CK_LEVEL_1
 10
274.1648745276246
 20
51.86736677115952
 30
0.0
  0
SEQEND
  5
E5C
  8
CK_LEVEL_1
  0
POLYLINE
  5
DC
  8
CK_LEVEL_1
 66
     1
 10
0.0
 20
0.0
 30
0.0
 70
     1
  0
VERTEX
  5
5E7
  8
CK_LEVEL_1
 10
220.2166865563789
 20
52.18997636275822
 30
0.0
  0
VERTEX
  5
5E8
  8
CK_LEVEL_1
 10
216.6084189138327
 20
58.43967924695496
 30
0.0
 42
0.5773502691860283
  0
VERTEX
  5
5E9
  8
CK_LEVEL_1
 10
216.0190426067141
 20
58.43967924695496
 30
0.0
  0
VERTEX
  5
5EA
  8
CK_LEVEL_1
 10
212.410774964168
 20
52.18997636275822
 30
0.0
 42
0.5773502691813766
  0
VERTEX
  5
5EB
  8
CK_LEVEL_1
 10
212.7054631177273
 20
51.6795615084048
 30
0.0
  0
VERTEX
  5
5EC
  8
CK_LEVEL_1
 10
219.9219984028196
 20
51.6795615084048
 30
0.0
 42
0.5773502691973786
  0
SEQEND
  5
E5D
  8
CK_LEVEL_1
  0
POLYLINE
  5
DD
  8
CK_LEVEL_1
 66
     1
 10
0.0
 20
0.0
 30
0.0
 70
     1
  0
VERTEX
  5
5ED
  8
CK_LEVEL_1
 10
220.4920076868887
 20
51.86586500309527
 30
0.0
  0
VERTEX
  5
5EE
  8
CK_LEVEL_1
 10
220.4955780486191
 20
51.87981554622557
 30
0.0
  0
VERTEX
  5
5EF
  8
CK_LEVEL_1
 10
220.4988054282799
 20
51.89383795391436
 30
0.0
  0
VERTEX
  5
5F0
  8
CK_LEVEL_1
 10
220.5016892316677
 20
51.90792558284681
 30
0.0
  0
VERTEX
  5
5F1
  8
CK_LEVEL_1
 10
220.5042288645791
 20
51.92207178970809
 30
0.0
  0
VERTEX
  5
5F2
  8
CK_LEVEL_1
 10
220.506423732811
 20
51.93626993118339
 30
0.0
  0
VERTEX
  5
5F3
  8
CK_LEVEL_1
 10
220.50827324216
 20
51.95051336395788
 30
0.0
  0
VERTEX
  5
5F4
  8
CK_LEVEL_1
 10
220.5097767984228
 20
51.96479544471674
 30
0.0
  0
VERTEX
  5
5F5
  8
CK_LEVEL_1
 10
220.510933807396
 20
51.97910953014517
 30
0.0
  0
VERTEX
  5
5F6
  8
CK_LEVEL_1
 10
220.5117436748765
 20
51.99344897692833
 30
0.0
  0
VERTEX
  5
5F7
  8
CK_LEVEL_1
 10
220.5122058066608
 20
52.0078071417514
 30
0.0
  0
VERTEX
  5
5F8
  8
CK_LEVEL_1
 10
220.5123196085458
 20
52.02217738129956
 30
0.0
  0
VERTEX
  5
5F9
  8
CK_LEVEL_1
 10
220.512084486328
 20
52.03655305225799
 30
0.0
  0
VERTEX
  5
5FA
  8
CK_LEVEL_1
 10
220.5114998458043
 20
52.05092751131187
 30
0.0
  0
VERTEX
  5
5FB
  8
CK_LEVEL_1
 10
220.5105650927713
 20
52.06529411514639
 30
0.0
  0
VERTEX
  5
5FC
  8
CK_LEVEL_1
 10
220.5092796330256
 20
52.0796462204467
 30
0.0
  0
VERTEX
  5
5FD
  8
CK_LEVEL_1
 10
220.5076428723641
 20
52.09397718389801
 30
0.0
  0
VERTEX
  5
5FE
  8
CK_LEVEL_1
 10
220.5056542165833
 20
52.10828036218548
 30
0.0
  0
VERTEX
  5
5FF
  8
CK_LEVEL_1
 10
220.5033130714801
 20
52.1225491119943
 30
0.0
  0
VERTEX
  5
600
  8
CK_LEVEL_1
 10
220.5006188428511
 20
52.13677679000965
 30
0.0
  0
VERTEX
  5
601
  8
CK_LEVEL_1
 10
220.4975709364929
 20
52.15095675291669
 30
0.0
  0
VERTEX
  5
602
  8
CK_LEVEL_1
 10
220.4941687582024
 20
52.16508235740062
 30
0.0
  0
VERTEX
  5
603
  8
CK_LEVEL_1
 10
220.4904117137761
 20
52.17914696014662
 30
0.0
  0
VERTEX
  5
604
  8
CK_LEVEL_1
 10
220.4862992090109
 20
52.19314391783985
 30
0.0
  0
VERTEX
  5
605
  8
CK_LEVEL_1
 10
220.4818306497033
 20
52.20706658716551
 30
0.0
  0
VERTEX
  5
606
  8
CK_LEVEL_1
 10
220.4770054416502
 20
52.22090832480878
 30
0.0
  0
VERTEX
  5
607
  8
CK_LEVEL_1
 10
220.4718229906482
 20
52.23466248745481
 30
0.0
  0
VERTEX
  5
608
  8
CK_LEVEL_1
 10
220.466282702494
 20
52.24832243178881
 30
0.0
  0
VERTEX
  5
609
  8
CK_LEVEL_1
 10
220.4603839829842
 20
52.26188151449593
 30
0.0
  0
VERTEX
  5
60A
  8
CK_LEVEL_1
 10
220.4541262379157
 20
52.27533309226138
 30
0.0
  0
VERTEX
  5
60B
  8
CK_LEVEL_1
 10
220.4475088730851
 20
52.28867052177033
 30
0.0
  0
VERTEX
  5
60C
  8
CK_LEVEL_1
 10
220.4405312942891
 20
52.30188715970795
 30
0.0
  0
VERTEX
  5
60D
  8
CK_LEVEL_1
 10
220.4331929073244
 20
52.31497636275942
 30
0.0
  0
VERTEX
  5
60E
  8
CK_LEVEL_1
 10
218.9547947617621
 20
54.87563706468831
 30
0.0
  0
VERTEX
  5
60F
  8
CK_LEVEL_1
 10
217.5636814616985
 20
54.87082460271364
 30
0.0
 42
-0.4142135623738916
  0
VERTEX
  5
610
  8
CK_LEVEL_1
 10
217.3136814616985
 20
55.12082460271364
 30
0.0
  0
VERTEX
  5
611
  8
CK_LEVEL_1
 10
217.3195474798571
 20
57.70796843989559
 30
0.0
  0
VERTEX
  5
612
  8
CK_LEVEL_1
 10
216.8249252647785
 20
58.56467924695556
 30
0.0
 42
0.5773502691860231
  0
VERTEX
  5
613
  8
CK_LEVEL_1
 10
215.8025362557683
 20
58.56467924695553
 30
0.0
  0
VERTEX
  5
614
  8
CK_LEVEL_1
 10
215.3014308752786
 20
57.69673926800164
 30
0.0
  0
VERTEX
  5
615
  8
CK_LEVEL_1
 10
215.3136814616985
 20
55.12082460271364
 30
0.0
 42
-0.4142135623732166
  0
VERTEX
  5
616
  8
CK_LEVEL_1
 10
215.0636814616985
 20
54.87082460271364
 30
0.0
  0
VERTEX
  5
617
  8
CK_LEVEL_1
 10
213.6723250710704
 20
54.87504524420701
 30
0.0
  0
VERTEX
  5
618
  8
CK_LEVEL_1
 10
212.1942686132204
 20
52.31497636275579
 30
0.0
  0
VERTEX
  5
619
  8
CK_LEVEL_1
 10
212.1869582979355
 20
52.30193804357492
 30
0.0
  0
VERTEX
  5
61A
  8
CK_LEVEL_1
 10
212.180004269363
 20
52.28876868152688
 30
0.0
  0
VERTEX
  5
61B
  8
CK_LEVEL_1
 10
212.1734062071064
 20
52.27547494240159
 30
0.0
  0
VERTEX
  5
61C
  8
CK_LEVEL_1
 10
212.1671637907692
 20
52.26206349198895
 30
0.0
  0
VERTEX
  5
61D
  8
CK_LEVEL_1
 10
212.1612766999552
 20
52.24854099607883
 30
0.0
  0
VERTEX
  5
61E
  8
CK_LEVEL_1
 10
212.1557446142678
 20
52.23491412046116
 30
0.0
  0
VERTEX
  5
61F
  8
CK_LEVEL_1
 10
212.1505672133107
 20
52.22118953092581
 30
0.0
  0
VERTEX
  5
620
  8
CK_LEVEL_1
 10
212.1457441766875
 20
52.20737389326268
 30
0.0
  0
VERTEX
  5
621
  8
CK_LEVEL_1
 10
212.1412751840018
 20
52.19347387326167
 30
0.0
  0
VERTEX
  5
622
  8
CK_LEVEL_1
 10
212.1371599148571
 20
52.17949613671269
 30
0.0
  0
VERTEX
  5
623
  8
CK_LEVEL_1
 10
212.1333980488571
 20
52.16544734940563
 30
0.0
  0
VERTEX
  5
624
  8
CK_LEVEL_1
 10
212.1299892656054
 20
52.15133417713038
 30
0.0
  0
VERTEX
  5
625
  8
CK_LEVEL_1
 10
212.1269332447055
 20
52.13716328567685
 30
0.0
  0
VERTEX
  5
626
  8
CK_LEVEL_1
 10
212.124229665761
 20
52.12294134083491
 30
0.0
  0
VERTEX
  5
627
  8
CK_LEVEL_1
 10
212.1218782083757
 20
52.10867500839448
 30
0.0
  0
VERTEX
  5
628
  8
CK_LEVEL_1
 10
212.119878552153
 20
52.09437095414547
 30
0.0
  0
VERTEX
  5
629
  8
CK_LEVEL_1
 10
212.1182303766965
 20
52.08003584387775
 30
0.0
  0
VERTEX
  5
62A
  8
CK_LEVEL_1
 10
212.1169333616098
 20
52.06567634338123
 30
0.0
  0
VERTEX
  5
62B
  8
CK_LEVEL_1
 10
212.1159871864966
 20
52.0512991184458
 30
0.0
  0
VERTEX
  5
62C
  8
CK_LEVEL_1
 10
212.1153915309604
 20
52.03691083486136
 30
0.0
  0
VERTEX
  5
62D
  8
CK_LEVEL_1
 10
212.1151460746048
 20
52.0225181584178
 30
0.0
  0
VERTEX
  5
62E
  8
CK_LEVEL_1
 10
212.1152504970335
 20
52.00812775490503
 30
0.0
  0
VERTEX
  5
62F
  8
CK_LEVEL_1
 10
212.11570447785
 20
51.99374629011295
 30
0.0
  0
VERTEX
  5
630
  8
CK_LEVEL_1
 10
212.1165076966578
 20
51.97938042983143
 30
0.0
  0
VERTEX
  5
631
  8
CK_LEVEL_1
 10
212.1176598330607
 20
51.9650368398504
 30
0.0
  0
VERTEX
  5
632
  8
CK_LEVEL_1
 10
212.1191605666622
 20
51.95072218595973
 30
0.0
  0
VERTEX
  5
633
  8
CK_LEVEL_1
 10
212.1210095770659
 20
51.93644313394933
 30
0.0
  0
VERTEX
  5
634
  8
CK_LEVEL_1
 10
212.1232065438754
 20
51.92220634960911
 30
0.0
  0
VERTEX
  5
635
  8
CK_LEVEL_1
 10
212.1257511466943
 20
51.90801849872894
 30
0.0
  0
VERTEX
  5
636
  8
CK_LEVEL_1
 10
212.1286430651262
 20
51.89388624709873
 30
0.0
  0
VERTEX
  5
637
  8
CK_LEVEL_1
 10
212.1318819787746
 20
51.87981626050838
 30
0.0
  0
VERTEX
  5
638
  8
CK_LEVEL_1
 10
212.1354675672433
 20
51.86581520474779
 30
0.0
  0
VERTEX
  5
639
  8
CK_LEVEL_1
 10
215.5936814616986
 20
51.87082460271363
 30
0.0
  0
VERTEX
  5
63A
  8
CK_LEVEL_1
 10
215.5936814616986
 20
52.19404790741699
 30
0.0
 42
-1.0
  0
VERTEX
  5
63B
  8
CK_LEVEL_1
 10
215.7704581569952
 20
52.37082460271364
 30
0.0
  0
VERTEX
  5
63C
  8
CK_LEVEL_1
 10
216.8569047664019
 20
52.37082460271364
 30
0.0
 42
-1.0
  0
VERTEX
  5
63D
  8
CK_LEVEL_1
 10
217.0336814616986
 20
52.19404790741699
 30
0.0
  0
VERTEX
  5
63E
  8
CK_LEVEL_1
 10
217.0336814616986
 20
51.87082460271363
 30
0.0
  0
SEQEND
  5
E5E
  8
CK_LEVEL_1
  0
POLYLINE
  5
DE
  8
CK_LEVEL_1
 66
     1
 10
0.0
 20
0.0
 30
0.0
 70
     1
  0
VERTEX
  5
63F
  8
CK_LEVEL_1
 10
1.1662
 20
5.4976
 30
0.0
 42
0.4142135623730951
  0
VERTEX
  5
640
  8
CK_LEVEL_1
 10
1.0412
 20
5.3726
 30
0.0
 42
0.4142135623730951
  0
VERTEX
  5
641
  8
CK_LEVEL_1
 10
1.1662
 20
5.2476
 30
0.0
 42
0.4142135623730951
  0
VERTEX
  5
642
  8
CK_LEVEL_1
 10
1.2912
 20
5.3726
 30
0.0
 42
0.4142135623730951
  0
SEQEND
  5
E5F
  8
CK_LEVEL_1
  0
POLYLINE
  5
DF
  8
CK_LEVEL_1
 66
     1
 10
0.0
 20
0.0
 30
0.0
 70
     1
  0
VERTEX
  5
643
  8
CK_LEVEL_1
 10
50.0255
 20
1.6864
 30
0.0
 42
0.4142135623730951
  0
VERTEX
  5
644
  8
CK_LEVEL_1
 10
49.9005
 20
1.5614
 30
0.0
 42
0.4142135623730951
  0
VERTEX
  5
645
  8
CK_LEVEL_1
 10
50.0255
 20
1.4364
 30
0.0
 42
0.4142135623730951
  0
VERTEX
  5
646
  8
CK_LEVEL_1
 10
50.1505
 20
1.5614
 30
0.0
 42
0.4142135623730951
  0
SEQEND
  5
E60
  8
CK_LEVEL_1
  0
POLYLINE
  5
E0
  8
CK_LEVEL_1
 66
     1
 10
0.0
 20
0.0
 30
0.0
 70
     1
  0
VERTEX
  5
647
  8
CK_LEVEL_1
 10
91.242
 20
6.3875
 30
0.0
 42
0.4142135623730951
  0
VERTEX
  5
648
  8
CK_LEVEL_1
 10
91.117
 20
6.2625
 30
0.0
 42
0.4142135623730951
  0
VERTEX
  5
649
  8
CK_LEVEL_1
 10
91.242
 20
6.1375
 30
0.0
 42
0.4142135623730951
  0
VERTEX
  5
64A
  8
CK_LEVEL_1
 10
91.367
 20
6.2625
 30
0.0
 42
0.4142135623730951
  0
SEQEND
  5
E61
  8
CK_LEVEL_1
  0
POLYLINE
  5
E1
  8
CK_LEVEL_1
 66
     1
 10
0.0
 20
0.0
 30
0.0
 70
     1
  0
VERTEX
  5
64B
  8
CK_LEVEL_1
 10
64.6754
 20
23.1146
 30
0.0
 42
0.4142135623730951
  0
VERTEX
  5
64C
  8
CK_LEVEL_1
 10
64.5504
 20
22.9896
 30
0.0
 42
0.4142135623730951
  0
VERTEX
  5
64D
  8
CK_LEVEL_1
 10
64.6754
 20
22.8646
 30
0.0
 42
0.4142135623730951
  0
VERTEX
  5
64E
  8
CK_LEVEL_1
 10
64.8004
 20
22.9896
 30
0.0
 42
0.4142135623730951
  0
SEQEND
  5
E62
  8
CK_LEVEL_1
  0
POLYLINE
  5
E2
  8
CK_LEVEL_1
 66
     1
 10
0.0
 20
0.0
 30
0.0
 70
     1
  0
VERTEX
  5
64F
  8
CK_LEVEL_1
 10
86.1036
 20
29.2369
 30
0.0
 42
0.4142135623730951
  0
VERTEX
  5
650
  8
CK_LEVEL_1
 10
85.9786
 20
29.1119
 30
0.0
 42
0.4142135623730951
  0
VERTEX
  5
651
  8
CK_LEVEL_1
 10
86.1036
 20
28.9869
 30
0.0
 42
0.4142135623730951
  0
VERTEX
  5
652
  8
CK_LEVEL_1
 10
86.2286
 20
29.1119
 30
0.0
 42
0.4142135623730951
  0
SEQEND
  5
E63
  8
CK_LEVEL_1
  0
POLYLINE
  5
E3
  8
CK_LEVEL_1
 66
     1
 10
0.0
 20
0.0
 30
0.0
 70
     1
  0
VERTEX
  5
653
  8
CK_LEVEL_1
 10
75.9361
 20
44.8708
 30
0.0
 42
0.4142135623730951
  0
VERTEX
  5
654
  8
CK_LEVEL_1
 10
75.8111
 20
44.7458
 30
0.0
 42
0.4142135623730951
  0
VERTEX
  5
655
  8
CK_LEVEL_1
 10
75.9361
 20
44.6208
 30
0.0
 42
0.4142135623730951
  0
VERTEX
  5
656
  8
CK_LEVEL_1
 10
76.0611
 20
44.7458
 30
0.0
 42
0.4142135623730951
  0
SEQEND
  5
E64
  8
CK_LEVEL_1
  0
POLYLINE
  5
E4
  8
CK_LEVEL_1
 66
     1
 10
0.0
 20
0.0
 30
0.0
 70
     1
  0
VERTEX
  5
657
  8
CK_LEVEL_1
 10
48.3856
 20
37.6551
 30
0.0
 42
0.4142135623730951
  0
VERTEX
  5
658
  8
CK_LEVEL_1
 10
48.2606
 20
37.5301
 30
0.0
 42
0.4142135623730951
  0
VERTEX
  5
659
  8
CK_LEVEL_1
 10
48.3856
 20
37.4051
 30
0.0
 42
0.4142135623730951
  0
VERTEX
  5
65A
  8
CK_LEVEL_1
 10
48.5106
 20
37.5301
 30
0.0
 42
0.4142135623730951
  0
SEQEND
  5
E65
  8
CK_LEVEL_1
  0
POLYLINE
  5
E5
  8
CK_LEVEL_1
 66
     1
 10
0.0
 20
0.0
 30
0.0
 70
     1
  0
VERTEX
  5
65B
  8
CK_LEVEL_1
 10
1.7027
 20
46.7293
 30
0.0
 42
0.4142135623730951
  0
VERTEX
  5
65C
  8
CK_LEVEL_1
 10
1.5777
 20
46.6043
 30
0.0
 42
0.4142135623730951
  0
VERTEX
  5
65D
  8
CK_LEVEL_1
 10
1.7027
 20
46.4793
 30
0.0
 42
0.4142135623730951
  0
VERTEX
  5
65E
  8
CK_LEVEL_1
 10
1.8277
 20
46.6043
 30
0.0
 42
0.4142135623730951
  0
SEQEND
  5
E66
  8
CK_LEVEL_1
  0
POLYLINE
  5
E6
  8
CK_LEVEL_1
 66
     1
 10
0.0
 20
0.0
 30
0.0
 70
     1
  0
VERTEX
  5
65F
  8
CK_LEVEL_1
 10
15.6967
 20
25.1918
 30
0.0
 42
0.4142135623730951
  0
VERTEX
  5
660
  8
CK_LEVEL_1
 10
15.5717
 20
25.0668
 30
0.0
 42
0.4142135623730951
  0
VERTEX
  5
661
  8
CK_LEVEL_1
 10
15.6967
 20
24.9418
 30
0.0
 42
0.4142135623730951
  0
VERTEX
  5
662
  8
CK_LEVEL_1
 10
15.8217
 20
25.0668
 30
0.0
 42
0.4142135623730951
  0
SEQEND
  5
E67
  8
CK_LEVEL_1
  0
POLYLINE
  5
E7
  8
CK_LEVEL_1
 66
     1
 10
0.0
 20
0.0
 30
0.0
 70
     1
  0
VERTEX
  5
663
  8
CK_LEVEL_1
 10
41.498
 20
22.5679
 30
0.0
 42
0.4142135623730951
  0
VERTEX
  5
664
  8
CK_LEVEL_1
 10
41.373
 20
22.4429
 30
0.0
 42
0.4142135623730951
  0
VERTEX
  5
665
  8
CK_LEVEL_1
 10
41.498
 20
22.3179
 30
0.0
 42
0.4142135623730951
  0
VERTEX
  5
666
  8
CK_LEVEL_1
 10
41.623
 20
22.4429
 30
0.0
 42
0.4142135623730951
  0
SEQEND
  5
E68
  8
CK_LEVEL_1
  0
POLYLINE
  5
E8
  8
CK_LEVEL_1
 66
     1
 10
0.0
 20
0.0
 30
0.0
 70
     1
  0
VERTEX
  5
667
  8
CK_LEVEL_1
 10
3.285278996866408
 20
2.933375447949196
 30
0.0
 42
0.4142135623730951
  0
VERTEX
  5
668
  8
CK_LEVEL_1
 10
3.155278996866384
 20
2.803375447949193
 30
0.0
 42
0.4142135623730951
  0
VERTEX
  5
669
  8
CK_LEVEL_1
 10
3.285278996866408
 20
2.673375447949184
 30
0.0
 42
0.4142135623730951
  0
VERTEX
  5
66A
  8
CK_LEVEL_1
 10
3.415278996866396
 20
2.803375447949193
 30
0.0
 42
0.4142135623730951
  0
SEQEND
  5
E69
  8
CK_LEVEL_1
  0
POLYLINE
  5
E9
  8
CK_LEVEL_1
 66
     1
 10
0.0
 20
0.0
 30
0.0
 70
     1
  0
VERTEX
  5
66B
  8
CK_LEVEL_1
 10
44.78527899686648
 20
2.933375447949196
 30
0.0
 42
0.4142135623730951
  0
VERTEX
  5
66C
  8
CK_LEVEL_1
 10
44.65527899686649
 20
2.803375447949193
 30
0.0
 42
0.4142135623730951
  0
VERTEX
  5
66D
  8
CK_LEVEL_1
 10
44.78527899686648
 20
2.673375447949184
 30
0.0
 42
0.4142135623730951
  0
VERTEX
  5
66E
  8
CK_LEVEL_1
 10
44.91527899686648
 20
2.803375447949193
 30
0.0
 42
0.4142135623730951
  0
SEQEND
  5
E6A
  8
CK_LEVEL_1
  0
POLYLINE
  5
EA
  8
CK_LEVEL_1
 66
     1
 10
0.0
 20
0.0
 30
0.0
 70
     1
  0
VERTEX
  5
66F
  8
CK_LEVEL_1
 10
15.87907199686657
 20
18.11044744794927
 30
0.0
 42
0.4142135623730951
  0
VERTEX
  5
670
  8
CK_LEVEL_1
 10
15.74907199686657
 20
17.98044744794926
 30
0.0
 42
0.4142135623730951
  0
VERTEX
  5
671
  8
CK_LEVEL_1
 10
15.87907199686657
 20
17.85044744794926
 30
0.0
 42
0.4142135623730951
  0
VERTEX
  5
672
  8
CK_LEVEL_1
 10
16.00907199686656
 20
17.98044744794926
 30
0.0
 42
0.4142135623730951
  0
SEQEND
  5
E6B
  8
CK_LEVEL_1
  0
POLYLINE
  5
EB
  8
CK_LEVEL_1
 66
     1
 10
0.0
 20
0.0
 30
0.0
 70
     1
  0
VERTEX
  5
673
  8
CK_LEVEL_1
 10
32.19148599686653
 20
18.11044744794927
 30
0.0
 42
0.4142135623730951
  0
VERTEX
  5
674
  8
CK_LEVEL_1
 10
32.06148599686654
 20
17.98044744794926
 30
0.0
 42
0.4142135623730951
  0
VERTEX
  5
675
  8
CK_LEVEL_1
 10
32.19148599686653
 20
17.85044744794926
 30
0.0
 42
0.4142135623730951
  0
VERTEX
  5
676
  8
CK_LEVEL_1
 10
32.32148599686653
 20
17.98044744794926
 30
0.0
 42
0.4142135623730951
  0
SEQEND
  5
E6C
  8
CK_LEVEL_1
  0
POLYLINE
  5
EC
  8
CK_LEVEL_1
 66
     1
 10
0.0
 20
0.0
 30
0.0
 70
     1
  0
VERTEX
  5
677
  8
CK_LEVEL_1
 10
71.58690445552463
 20
16.38512515490667
 30
0.0
 42
0.4142135623731025
  0
VERTEX
  5
678
  8
CK_LEVEL_1
 10
71.0019044555246
 20
16.97012515490668
 30
0.0
 42
0.4142135623731119
  0
VERTEX
  5
679
  8
CK_LEVEL_1
 10
70.41690445552453
 20
16.38512515490669
 30
0.0
 42
0.4142135623730949
  0
VERTEX
  5
67A
  8
CK_LEVEL_1
 10
71.00190445552458
 20
15.80012515490665
 30
0.0
 42
0.4142135623730951
  0
SEQEND
  5
E6D
  8
CK_LEVEL_1
  0
POLYLINE
  5
ED
  8
CK_LEVEL_1
 66
     1
 10
0.0
 20
0.0
 30
0.0
 70
     1
  0
VERTEX
  5
67B
  8
CK_LEVEL_1
 10
71.00190445552458
 20
40.65780540569044
 30
0.0
 42
0.4142135623730901
  0
VERTEX
  5
67C
  8
CK_LEVEL_1
 10
71.58690445552463
 20
41.24280540569046
 30
0.0
 42
0.4142135623730868
  0
VERTEX
  5
67D
  8
CK_LEVEL_1
 10
71.00190445552457
 20
41.82780540569047
 30
0.0
 42
0.4142135623730754
  0
VERTEX
  5
67E
  8
CK_LEVEL_1
 10
70.41690445552453
 20
41.24280540569046
 30
0.0
 42
0.4142135623730939
  0
SEQEND
  5
E6E
  8
CK_LEVEL_1
  0
POLYLINE
  5
EE
  8
CK_LEVEL_1
 66
     1
 10
0.0
 20
0.0
 30
0.0
 70
     1
  0
VERTEX
  5
67F
  8
CK_LEVEL_1
 10
71.00190445552458
 20
32.65278973170922
 30
0.0
 42
0.4142135623730968
  0
VERTEX
  5
680
  8
CK_LEVEL_1
 10
71.58690445552463
 20
33.23778973170924
 30
0.0
 42
0.4142135623731034
  0
VERTEX
  5
681
  8
CK_LEVEL_1
 10
71.0019044555246
 20
33.82278973170925
 30
0.0
 42
0.4142135623731121
  0
VERTEX
  5
682
  8
CK_LEVEL_1
 10
70.41690445552453
 20
33.23778973170926
 30
0.0
 42
0.4142135623730962
  0
SEQEND
  5
E6F
  8
CK_LEVEL_1
  0
POLYLINE
  5
EF
  8
CK_LEVEL_1
 66
     1
 10
0.0
 20
0.0
 30
0.0
 70
     1
  0
VERTEX
  5
683
  8
CK_LEVEL_1
 10
71.58690445552463
 20
24.81145744330796
 30
0.0
 42
0.4142135623731024
  0
VERTEX
  5
684
  8
CK_LEVEL_1
 10
71.0019044555246
 20
25.39645744330797
 30
0.0
 42
0.4142135623731121
  0
VERTEX
  5
685
  8
CK_LEVEL_1
 10
70.41690445552453
 20
24.81145744330797
 30
0.0
 42
0.4142135623730949
  0
VERTEX
  5
686
  8
CK_LEVEL_1
 10
71.00190445552458
 20
24.22645744330794
 30
0.0
 42
0.4142135623730948
  0
SEQEND
  5
E70
  8
CK_LEVEL_1
  0
POLYLINE
  5
F0
  8
CK_LEVEL_1
 66
     1
 10
0.0
 20
0.0
 30
0.0
 70
     1
  0
VERTEX
  5
687
  8
CK_LEVEL_1
 10
80.93384069431448
 20
16.97012515490668
 30
0.0
 42
0.4142135623731116
  0
VERTEX
  5
688
  8
CK_LEVEL_1
 10
80.34884069431443
 20
16.38512515490669
 30
0.0
 42
0.4142135623730968
  0
VERTEX
  5
689
  8
CK_LEVEL_1
 10
80.93384069431448
 20
15.80012515490665
 30
0.0
 42
0.4142135623730962
  0
VERTEX
  5
68A
  8
CK_LEVEL_1
 10
81.51884069431453
 20
16.38512515490667
 30
0.0
 42
0.414213562373104
  0
SEQEND
  5
E71
  8
CK_LEVEL_1
  0
POLYLINE
  5
F1
  8
CK_LEVEL_1
 66
     1
 10
0.0
 20
0.0
 30
0.0
 70
     1
  0
VERTEX
  5
68B
  8
CK_LEVEL_1
 10
80.93384069431448
 20
25.39645744330797
 30
0.0
 42
0.4142135623731123
  0
VERTEX
  5
68C
  8
CK_LEVEL_1
 10
80.34884069431443
 20
24.81145744330797
 30
0.0
 42
0.4142135623730968
  0
VERTEX
  5
68D
  8
CK_LEVEL_1
 10
80.93384069431448
 20
24.22645744330794
 30
0.0
 42
0.4142135623730962
  0
VERTEX
  5
68E
  8
CK_LEVEL_1
 10
81.51884069431453
 20
24.81145744330796
 30
0.0
 42
0.414213562373104
  0
SEQEND
  5
E72
  8
CK_LEVEL_1
  0
POLYLINE
  5
F2
  8
CK_LEVEL_1
 66
     1
 10
0.0
 20
0.0
 30
0.0
 70
     1
  0
VERTEX
  5
68F
  8
CK_LEVEL_1
 10
80.34884069431443
 20
41.24280540569046
 30
0.0
 42
0.4142135623730956
  0
VERTEX
  5
690
  8
CK_LEVEL_1
 10
80.93384069431448
 20
40.65780540569044
 30
0.0
 42
0.4142135623730914
  0
VERTEX
  5
691
  8
CK_LEVEL_1
 10
81.51884069431453
 20
41.24280540569046
 30
0.0
 42
0.4142135623730885
  0
VERTEX
  5
692
  8
CK_LEVEL_1
 10
80.93384069431448
 20
41.82780540569047
 30
0.0
 42
0.4142135623730749
  0
SEQEND
  5
E73
  8
CK_LEVEL_1
  0
POLYLINE
  5
F3
  8
CK_LEVEL_1
 66
     1
 10
0.0
 20
0.0
 30
0.0
 70
     1
  0
VERTEX
  5
693
  8
CK_LEVEL_1
 10
80.34884069431443
 20
33.23778973170926
 30
0.0
 42
0.4142135623730981
  0
VERTEX
  5
694
  8
CK_LEVEL_1
 10
80.93384069431448
 20
32.65278973170922
 30
0.0
 42
0.4142135623730981
  0
VERTEX
  5
695
  8
CK_LEVEL_1
 10
81.51884069431453
 20
33.23778973170924
 30
0.0
 42
0.4142135623731052
  0
VERTEX
  5
696
  8
CK_LEVEL_1
 10
80.93384069431448
 20
33.82278973170925
 30
0.0
 42
0.4142135623731122
  0
SEQEND
  5
E74
  8
CK_LEVEL_1
  0
POLYLINE
  5
F4
  8
CK_LEVEL_1
 66
     1
 10
0.0
 20
0.0
 30
0.0
 70
     1
  0
VERTEX
  5
697
  8
CK_LEVEL_1
 10
53.3091583230303
 20
12.08957948641776
 30
0.0
 42
0.4142135623730955
  0
VERTEX
  5
698
  8
CK_LEVEL_1
 10
53.63915832303029
 20
12.41957948641775
 30
0.0
 42
0.4142135623730951
  0
VERTEX
  5
699
  8
CK_LEVEL_1
 10
53.3091583230303
 20
12.74957948641776
 30
0.0
 42
0.4142135623730951
  0
VERTEX
  5
69A
  8
CK_LEVEL_1
 10
52.97915832303028
 20
12.41957948641775
 30
0.0
 42
0.4142135623730964
  0
SEQEND
  5
E75
  8
CK_LEVEL_1
  0
POLYLINE
  5
F5
  8
CK_LEVEL_1
 66
     1
 10
0.0
 20
0.0
 30
0.0
 70
     1
  0
VERTEX
  5
69B
  8
CK_LEVEL_1
 10
53.88693730634648
 20
6.022620238769074
 30
0.0
 42
0.4142135623730955
  0
VERTEX
  5
69C
  8
CK_LEVEL_1
 10
54.21693730634647
 20
6.352620238769065
 30
0.0
 42
0.4142135623730951
  0
VERTEX
  5
69D
  8
CK_LEVEL_1
 10
53.88693730634648
 20
6.682620238769072
 30
0.0
 42
0.4142135623730951
  0
VERTEX
  5
69E
  8
CK_LEVEL_1
 10
53.55693730634646
 20
6.352620238769065
 30
0.0
 42
0.4142135623730964
  0
SEQEND
  5
E76
  8
CK_LEVEL_1
  0
POLYLINE
  5
F6
  8
CK_LEVEL_1
 66
     1
 10
0.0
 20
0.0
 30
0.0
 70
     1
  0
VERTEX
  5
69F
  8
CK_LEVEL_1
 10
62.47408446120556
 20
12.08957948641776
 30
0.0
 42
0.4142135623730955
  0
VERTEX
  5
6A0
  8
CK_LEVEL_1
 10
62.80408446120556
 20
12.41957948641775
 30
0.0
 42
0.4142135623730951
  0
VERTEX
  5
6A1
  8
CK_LEVEL_1
 10
62.47408446120556
 20
12.74957948641776
 30
0.0
 42
0.4142135623730951
  0
VERTEX
  5
6A2
  8
CK_LEVEL_1
 10
62.14408446120554
 20
12.41957948641775
 30
0.0
 42
0.4142135623730964
  0
SEQEND
  5
E77
  8
CK_LEVEL_1
  0
POLYLINE
  5
F7
  8
CK_LEVEL_1
 66
     1
 10
0.0
 20
0.0
 30
0.0
 70
     1
  0
VERTEX
  5
6A3
  8
CK_LEVEL_1
 10
62.47408446120556
 20
6.022620238769074
 30
0.0
 42
0.4142135623730955
  0
VERTEX
  5
6A4
  8
CK_LEVEL_1
 10
62.80408446120556
 20
6.352620238769065
 30
0.0
 42
0.4142135623730951
  0
VERTEX
  5
6A5
  8
CK_LEVEL_1
 10
62.47408446120556
 20
6.682620238769072
 30
0.0
 42
0.4142135623730951
  0
VERTEX
  5
6A6
  8
CK_LEVEL_1
 10
62.14408446120554
 20
6.352620238769065
 30
0.0
 42
0.4142135623730964
  0
SEQEND
  5
E78
  8
CK_LEVEL_1
  0
POLYLINE
  5
F8
  8
CK_LEVEL_1
 66
     1
 10
0.0
 20
0.0
 30
0.0
 70
     1
  0
VERTEX
  5
6A7
  8
CK_LEVEL_1
 10
24.03527899686656
 20
30.62337544794936
 30
0.0
 42
0.4142135623730951
  0
VERTEX
  5
6A8
  8
CK_LEVEL_1
 10
23.71527899686654
 20
30.30337544794935
 30
0.0
 42
0.4142135623730951
  0
VERTEX
  5
6A9
  8
CK_LEVEL_1
 10
24.03527899686656
 20
29.98337544794936
 30
0.0
 42
0.4142135623730951
  0
VERTEX
  5
6AA
  8
CK_LEVEL_1
 10
24.35527899686655
 20
30.30337544794935
 30
0.0
 42
0.4142135623730951
  0
SEQEND
  5
E79
  8
CK_LEVEL_1
  0
POLYLINE
  5
F9
  8
CK_LEVEL_1
 66
     1
 10
0.0
 20
0.0
 30
0.0
 70
     1
  0
VERTEX
  5
6AB
  8
CK_LEVEL_1
 10
39.34527899686649
 20
3.378375447949198
 30
0.0
 42
0.4142135623730951
  0
VERTEX
  5
6AC
  8
CK_LEVEL_1
 10
38.77027899686651
 20
2.803375447949193
 30
0.0
 42
0.4142135623730951
  0
VERTEX
  5
6AD
  8
CK_LEVEL_1
 10
39.34527899686649
 20
2.228375447949182
 30
0.0
 42
0.4142135623730951
  0
VERTEX
  5
6AE
  8
CK_LEVEL_1
 10
39.92027899686651
 20
2.803375447949193
 30
0.0
 42
0.4142135623730951
  0
SEQEND
  5
E7A
  8
CK_LEVEL_1
  0
POLYLINE
  5
FA
  8
CK_LEVEL_1
 66
     1
 10
0.0
 20
0.0
 30
0.0
 70
     1
  0
VERTEX
  5
6AF
  8
CK_LEVEL_1
 10
8.725278996866484
 20
3.378375447949198
 30
0.0
 42
0.4142135623730951
  0
VERTEX
  5
6B0
  8
CK_LEVEL_1
 10
8.150278996866446
 20
2.803375447949193
 30
0.0
 42
0.4142135623730951
  0
VERTEX
  5
6B1
  8
CK_LEVEL_1
 10
8.725278996866484
 20
2.228375447949182
 30
0.0
 42
0.4142135623730951
  0
VERTEX
  5
6B2
  8
CK_LEVEL_1
 10
9.300278996866503
 20
2.803375447949193
 30
0.0
 42
0.4142135623730951
  0
SEQEND
  5
E7B
  8
CK_LEVEL_1
  0
POLYLINE
  5
FB
  8
CK_LEVEL_1
 66
     1
 10
0.0
 20
0.0
 30
0.0
 70
     1
  0
VERTEX
  5
6B3
  8
CK_LEVEL_1
 10
66.87452162954197
 20
40.05811599771863
 30
0.0
  0
VERTEX
  5
6B4
  8
CK_LEVEL_1
 10
66.86710370170913
 20
40.02924553954182
 30
0.0
  0
VERTEX
  5
6B5
  8
CK_LEVEL_1
 10
66.86112194951458
 20
40.00013455225957
 30
0.0
  0
VERTEX
  5
6B6
  8
CK_LEVEL_1
 10
66.85657453667719
 20
39.97083700730178
 30
0.0
  0
VERTEX
  5
6B7
  8
CK_LEVEL_1
 10
66.85345959601898
 20
39.94140673459407
 30
0.0
  0
VERTEX
  5
6B8
  8
CK_LEVEL_1
 10
66.85177525814345
 20
39.91189744940726
 30
0.0
  0
VERTEX
  5
6B9
  8
CK_LEVEL_1
 10
66.85151967327586
 20
39.88236278268261
 30
0.0
  0
VERTEX
  5
6BA
  8
CK_LEVEL_1
 10
66.85269102505194
 20
39.85285632158531
 30
0.0
  0
VERTEX
  5
6BB
  8
CK_LEVEL_1
 10
66.85528753622329
 20
39.82343163780098
 30
0.0
  0
VERTEX
  5
6BC
  8
CK_LEVEL_1
 10
66.85930746642124
 20
39.79414232894788
 30
0.0
  0
VERTEX
  5
6BD
  8
CK_LEVEL_1
 10
66.86474910154418
 20
39.7650420540254
 30
0.0
  0
VERTEX
  5
6BE
  8
CK_LEVEL_1
 10
66.87515170683106
 20
39.72129255216747
 30
0.0
  0
VERTEX
  5
6BF
  8
CK_LEVEL_1
 10
75.26396960477425
 20
39.71742051816311
 30
0.0
  0
VERTEX
  5
6C0
  8
CK_LEVEL_1
 10
75.27463383571497
 20
39.7600628225012
 30
0.0
  0
VERTEX
  5
6C1
  8
CK_LEVEL_1
 10
75.28030782527567
 20
39.78837252102568
 30
0.0
  0
VERTEX
  5
6C2
  8
CK_LEVEL_1
 10
75.28464070226137
 20
39.81700320591591
 30
0.0
  0
VERTEX
  5
6C3
  8
CK_LEVEL_1
 10
75.28760540246186
 20
39.84590870616859
 30
0.0
  0
VERTEX
  5
6C4
  8
CK_LEVEL_1
 10
75.2891748480523
 20
39.87504254400784
 30
0.0
  0
VERTEX
  5
6C5
  8
CK_LEVEL_1
 10
75.28932200320878
 20
39.9043579012162
 30
0.0
  0
VERTEX
  5
6C6
  8
CK_LEVEL_1
 10
75.28801993842839
 20
39.9338076005991
 30
0.0
  0
VERTEX
  5
6C7
  8
CK_LEVEL_1
 10
75.28524190061644
 20
39.96334410438595
 30
0.0
  0
VERTEX
  5
6C8
  8
CK_LEVEL_1
 10
75.280961388259
 20
39.99291951250694
 30
0.0
  0
VERTEX
  5
6C9
  8
CK_LEVEL_1
 10
75.27515222599634
 20
40.02248559651622
 30
0.0
  0
VERTEX
  5
6CA
  8
CK_LEVEL_1
 10
75.26778863528516
 20
40.05199384487133
 30
0.0
  0
VERTEX
  5
6CB
  8
CK_LEVEL_1
 10
75.25884529872648
 20
40.08139551927621
 30
0.0
  0
VERTEX
  5
6CC
  8
CK_LEVEL_1
 10
75.24829740960483
 20
40.11064173867049
 30
0.0
  0
VERTEX
  5
6CD
  8
CK_LEVEL_1
 10
75.23612070569713
 20
40.13968357031041
 30
0.0
  0
VERTEX
  5
6CE
  8
CK_LEVEL_1
 10
75.22229147959438
 20
40.16847213756347
 30
0.0
  0
VERTEX
  5
6CF
  8
CK_LEVEL_1
 10
75.20690700065181
 20
40.19673746011114
 30
0.0
  0
VERTEX
  5
6D0
  8
CK_LEVEL_1
 10
73.72453346850423
 20
42.76428373358792
 30
0.0
  0
VERTEX
  5
6D1
  8
CK_LEVEL_1
 10
71.80845174431661
 20
42.76280540569046
 30
0.0
 42
-0.5780240983944969
  0
VERTEX
  5
6D2
  8
CK_LEVEL_1
 10
71.60951029024937
 20
43.10821437436417
 30
0.0
  0
VERTEX
  5
6D3
  8
CK_LEVEL_1
 10
72.57523386566623
 20
44.75492903882137
 30
0.0
  0
VERTEX
  5
6D4
  8
CK_LEVEL_1
 10
71.59842272761072
 20
46.44681555933204
 30
0.0
  0
VERTEX
  5
6D5
  8
CK_LEVEL_1
 10
71.58640793931924
 20
46.46677897162073
 30
0.0
  0
VERTEX
  5
6D6
  8
CK_LEVEL_1
 10
71.5737178895635
 20
46.48622039607
 30
0.0
  0
VERTEX
  5
6D7
  8
CK_LEVEL_1
 10
71.56046658159009
 20
46.50498227859072
 30
0.0
  0
VERTEX
  5
6D8
  8
CK_LEVEL_1
 10
71.54667433531488
 20
46.52306302800599
 30
0.0
  0
VERTEX
  5
6D9
  8
CK_LEVEL_1
 10
71.53236158029988
 20
46.54046116212277
 30
0.0
  0
VERTEX
  5
6DA
  8
CK_LEVEL_1
 10
71.51754883640608
 20
46.55717532262435
 30
0.0
  0
VERTEX
  5
6DB
  8
CK_LEVEL_1
 10
71.50225669641934
 20
46.57320428285885
 30
0.0
  0
VERTEX
  5
6DC
  8
CK_LEVEL_1
 10
71.48650580402402
 20
46.58854695622068
 30
0.0
  0
VERTEX
  5
6DD
  8
CK_LEVEL_1
 10
71.47031684034111
 20
46.60320239324193
 30
0.0
  0
VERTEX
  5
6DE
  8
CK_LEVEL_1
 10
71.45371049975294
 20
46.61716978672968
 30
0.0
  0
VERTEX
  5
6DF
  8
CK_LEVEL_1
 10
71.43670747622893
 20
46.63044846452391
 30
0.0
  0
VERTEX
  5
6E0
  8
CK_LEVEL_1
 10
71.41932844307932
 20
46.64303788749118
 30
0.0
  0
VERTEX
  5
6E1
  8
CK_LEVEL_1
 10
71.40159404238595
 20
46.65493763775527
 30
0.0
  0
VERTEX
  5
6E2
  8
CK_LEVEL_1
 10
71.38352486908472
 20
46.66614741181826
 30
0.0
  0
VERTEX
  5
6E3
  8
CK_LEVEL_1
 10
71.36514146702159
 20
46.67666700508818
 30
0.0
  0
VERTEX
  5
6E4
  8
CK_LEVEL_1
 10
71.32978484112486
 20
46.69527427652375
 30
0.0
  0
VERTEX
  5
6E5
  8
CK_LEVEL_1
 10
69.11686555405548
 20
42.87735227505311
 30
0.0
 42
-0.2671821859585237
  0
VERTEX
  5
6E6
  8
CK_LEVEL_1
 10
68.91807709067564
 20
42.76280540569046
 30
0.0
  0
VERTEX
  5
6E7
  8
CK_LEVEL_1
 10
68.41850632936192
 20
42.76955373280344
 30
0.0
  0
VERTEX
  5
6E8
  8
CK_LEVEL_1
 10
66.9330911877817
 20
40.19673923725429
 30
0.0
  0
VERTEX
  5
6E9
  8
CK_LEVEL_1
 10
66.91858859888852
 20
40.17010718827703
 30
0.0
  0
VERTEX
  5
6EA
  8
CK_LEVEL_1
 10
66.90540957906107
 20
40.14274196931871
 30
0.0
  0
VERTEX
  5
6EB
  8
CK_LEVEL_1
 10
66.89367298316547
 20
40.11491861522433
 30
0.0
  0
VERTEX
  5
6EC
  8
CK_LEVEL_1
 10
66.8833775026648
 20
40.08669179317911
 30
0.0
  0
SEQEND
  5
E7C
  8
CK_LEVEL_1
  0
POLYLINE
  5
FC
  8
CK_LEVEL_1
 66
     1
 10
0.0
 20
0.0
 30
0.0
 70
     1
  0
VERTEX
  5
6ED
  8
CK_LEVEL_1
 10
85.06122352029709
 20
40.05811599771863
 30
0.0
  0
VERTEX
  5
6EE
  8
CK_LEVEL_1
 10
85.06864144812994
 20
40.02924553954182
 30
0.0
  0
VERTEX
  5
6EF
  8
CK_LEVEL_1
 10
85.07462320032448
 20
40.00013455225957
 30
0.0
  0
VERTEX
  5
6F0
  8
CK_LEVEL_1
 10
85.07917061316188
 20
39.97083700730178
 30
0.0
  0
VERTEX
  5
6F1
  8
CK_LEVEL_1
 10
85.08228555382009
 20
39.94140673459407
 30
0.0
  0
VERTEX
  5
6F2
  8
CK_LEVEL_1
 10
85.08396989169562
 20
39.91189744940726
 30
0.0
  0
VERTEX
  5
6F3
  8
CK_LEVEL_1
 10
85.0842254765632
 20
39.88236278268261
 30
0.0
  0
VERTEX
  5
6F4
  8
CK_LEVEL_1
 10
85.08305412478713
 20
39.85285632158531
 30
0.0
  0
VERTEX
  5
6F5
  8
CK_LEVEL_1
 10
85.08045761361578
 20
39.82343163780098
 30
0.0
  0
VERTEX
  5
6F6
  8
CK_LEVEL_1
 10
85.07643768341782
 20
39.79414232894788
 30
0.0
  0
VERTEX
  5
6F7
  8
CK_LEVEL_1
 10
85.07099604829489
 20
39.7650420540254
 30
0.0
  0
VERTEX
  5
6F8
  8
CK_LEVEL_1
 10
85.060593443008
 20
39.72129255216747
 30
0.0
  0
VERTEX
  5
6F9
  8
CK_LEVEL_1
 10
76.67177554506482
 20
39.71742051816311
 30
0.0
  0
VERTEX
  5
6FA
  8
CK_LEVEL_1
 10
76.6611113141241
 20
39.7600628225012
 30
0.0
  0
VERTEX
  5
6FB
  8
CK_LEVEL_1
 10
76.6554373245634
 20
39.78837252102568
 30
0.0
  0
VERTEX
  5
6FC
  8
CK_LEVEL_1
 10
76.6511044475777
 20
39.81700320591591
 30
0.0
  0
VERTEX
  5
6FD
  8
CK_LEVEL_1
 10
76.6481397473772
 20
39.84590870616859
 30
0.0
  0
VERTEX
  5
6FE
  8
CK_LEVEL_1
 10
76.64657030178677
 20
39.87504254400784
 30
0.0
  0
VERTEX
  5
6FF
  8
CK_LEVEL_1
 10
76.64642314663028
 20
39.9043579012162
 30
0.0
  0
VERTEX
  5
700
  8
CK_LEVEL_1
 10
76.64772521141067
 20
39.9338076005991
 30
0.0
  0
VERTEX
  5
701
  8
CK_LEVEL_1
 10
76.65050324922262
 20
39.96334410438595
 30
0.0
  0
VERTEX
  5
702
  8
CK_LEVEL_1
 10
76.65478376158006
 20
39.99291951250694
 30
0.0
  0
VERTEX
  5
703
  8
CK_LEVEL_1
 10
76.66059292384273
 20
40.02248559651622
 30
0.0
  0
VERTEX
  5
704
  8
CK_LEVEL_1
 10
76.66795651455391
 20
40.05199384487133
 30
0.0
  0
VERTEX
  5
705
  8
CK_LEVEL_1
 10
76.67689985111258
 20
40.08139551927621
 30
0.0
  0
VERTEX
  5
706
  8
CK_LEVEL_1
 10
76.68744774023423
 20
40.11064173867049
 30
0.0
  0
VERTEX
  5
707
  8
CK_LEVEL_1
 10
76.69962444414193
 20
40.13968357031041
 30
0.0
  0
VERTEX
  5
708
  8
CK_LEVEL_1
 10
76.71345367024469
 20
40.16847213756347
 30
0.0
  0
VERTEX
  5
709
  8
CK_LEVEL_1
 10
76.72883814918725
 20
40.19673746011114
 30
0.0
  0
VERTEX
  5
70A
  8
CK_LEVEL_1
 10
78.21121168133483
 20
42.76428373358792
 30
0.0
  0
VERTEX
  5
70B
  8
CK_LEVEL_1
 10
80.12729340552245
 20
42.76280540569046
 30
0.0
 42
0.5780240983944969
  0
VERTEX
  5
70C
  8
CK_LEVEL_1
 10
80.32623485958969
 20
43.10821437436417
 30
0.0
  0
VERTEX
  5
70D
  8
CK_LEVEL_1
 10
79.36051128417283
 20
44.75492903882137
 30
0.0
  0
VERTEX
  5
70E
  8
CK_LEVEL_1
 10
80.33732242222834
 20
46.44681555933204
 30
0.0
  0
VERTEX
  5
70F
  8
CK_LEVEL_1
 10
80.34933721051982
 20
46.46677897162073
 30
0.0
  0
VERTEX
  5
710
  8
CK_LEVEL_1
 10
80.36202726027557
 20
46.48622039607
 30
0.0
  0
VERTEX
  5
711
  8
CK_LEVEL_1
 10
80.37527856824897
 20
46.50498227859072
 30
0.0
  0
VERTEX
  5
712
  8
CK_LEVEL_1
 10
80.38907081452419
 20
46.52306302800599
 30
0.0
  0
VERTEX
  5
713
  8
CK_LEVEL_1
 10
80.40338356953919
 20
46.54046116212277
 30
0.0
  0
VERTEX
  5
714
  8
CK_LEVEL_1
 10
80.41819631343299
 20
46.55717532262435
 30
0.0
  0
VERTEX
  5
715
  8
CK_LEVEL_1
 10
80.43348845341973
 20
46.57320428285885
 30
0.0
  0
VERTEX
  5
716
  8
CK_LEVEL_1
 10
80.44923934581504
 20
46.58854695622068
 30
0.0
  0
VERTEX
  5
717
  8
CK_LEVEL_1
 10
80.46542830949795
 20
46.60320239324193
 30
0.0
  0
VERTEX
  5
718
  8
CK_LEVEL_1
 10
80.48203465008612
 20
46.61716978672968
 30
0.0
  0
VERTEX
  5
719
  8
CK_LEVEL_1
 10
80.49903767361013
 20
46.63044846452391
 30
0.0
  0
VERTEX
  5
71A
  8
CK_LEVEL_1
 10
80.51641670675974
 20
46.64303788749118
 30
0.0
  0
VERTEX
  5
71B
  8
CK_LEVEL_1
 10
80.53415110745311
 20
46.65493763775527
 30
0.0
  0
VERTEX
  5
71C
  8
CK_LEVEL_1
 10
80.55222028075434
 20
46.66614741181826
 30
0.0
  0
VERTEX
  5
71D
  8
CK_LEVEL_1
 10
80.57060368281748
 20
46.67666700508818
 30
0.0
  0
VERTEX
  5
71E
  8
CK_LEVEL_1
 10
80.6059603087142
 20
46.69527427652375
 30
0.0
  0
VERTEX
  5
71F
  8
CK_LEVEL_1
 10
82.81887959578359
 20
42.87735227505311
 30
0.0
 42
0.2671821859585237
  0
VERTEX
  5
720
  8
CK_LEVEL_1
 10
83.01766805916343
 20
42.76280540569046
 30
0.0
  0
VERTEX
  5
721
  8
CK_LEVEL_1
 10
83.51723882047715
 20
42.76955373280344
 30
0.0
  0
VERTEX
  5
722
  8
CK_LEVEL_1
 10
85.00265396205737
 20
40.19673923725429
 30
0.0
  0
VERTEX
  5
723
  8
CK_LEVEL_1
 10
85.01715655095055
 20
40.17010718827703
 30
0.0
  0
VERTEX
  5
724
  8
CK_LEVEL_1
 10
85.03033557077799
 20
40.14274196931871
 30
0.0
  0
VERTEX
  5
725
  8
CK_LEVEL_1
 10
85.04207216667359
 20
40.11491861522433
 30
0.0
  0
VERTEX
  5
726
  8
CK_LEVEL_1
 10
85.05236764717426
 20
40.08669179317911
 30
0.0
  0
SEQEND
  5
E7D
  8
CK_LEVEL_1
  0
POLYLINE
  5
FD
  8
CK_LEVEL_1
 66
     1
 10
0.0
 20
0.0
 30
0.0
 70
     1
  0
VERTEX
  5
727
  8
CK_LEVEL_1
 10
85.06122352029709
 20
32.05310032373741
 30
0.0
  0
VERTEX
  5
728
  8
CK_LEVEL_1
 10
85.06864144812994
 20
32.0242298655606
 30
0.0
  0
VERTEX
  5
729
  8
CK_LEVEL_1
 10
85.07462320032448
 20
31.99511887827835
 30
0.0
  0
VERTEX
  5
72A
  8
CK_LEVEL_1
 10
85.07917061316188
 20
31.96582133332056
 30
0.0
  0
VERTEX
  5
72B
  8
CK_LEVEL_1
 10
85.08228555382009
 20
31.93639106061285
 30
0.0
  0
VERTEX
  5
72C
  8
CK_LEVEL_1
 10
85.08396989169562
 20
31.90688177542604
 30
0.0
  0
VERTEX
  5
72D
  8
CK_LEVEL_1
 10
85.0842254765632
 20
31.87734710870139
 30
0.0
  0
VERTEX
  5
72E
  8
CK_LEVEL_1
 10
85.08305412478713
 20
31.84784064760409
 30
0.0
  0
VERTEX
  5
72F
  8
CK_LEVEL_1
 10
85.08045761361578
 20
31.81841596381976
 30
0.0
  0
VERTEX
  5
730
  8
CK_LEVEL_1
 10
85.07643768341782
 20
31.78912665496667
 30
0.0
  0
VERTEX
  5
731
  8
CK_LEVEL_1
 10
85.07099604829489
 20
31.76002638004418
 30
0.0
  0
VERTEX
  5
732
  8
CK_LEVEL_1
 10
85.060593443008
 20
31.71627687818625
 30
0.0
  0
VERTEX
  5
733
  8
CK_LEVEL_1
 10
76.67177554506482
 20
31.71240484418189
 30
0.0
  0
VERTEX
  5
734
  8
CK_LEVEL_1
 10
76.6611113141241
 20
31.75504714851998
 30
0.0
  0
VERTEX
  5
735
  8
CK_LEVEL_1
 10
76.6554373245634
 20
31.78335684704446
 30
0.0
  0
VERTEX
  5
736
  8
CK_LEVEL_1
 10
76.6511044475777
 20
31.81198753193469
 30
0.0
  0
VERTEX
  5
737
  8
CK_LEVEL_1
 10
76.6481397473772
 20
31.84089303218737
 30
0.0
  0
VERTEX
  5
738
  8
CK_LEVEL_1
 10
76.64657030178677
 20
31.87002687002662
 30
0.0
  0
VERTEX
  5
739
  8
CK_LEVEL_1
 10
76.64642314663028
 20
31.89934222723498
 30
0.0
  0
VERTEX
  5
73A
  8
CK_LEVEL_1
 10
76.64772521141067
 20
31.92879192661788
 30
0.0
  0
VERTEX
  5
73B
  8
CK_LEVEL_1
 10
76.65050324922262
 20
31.95832843040473
 30
0.0
  0
VERTEX
  5
73C
  8
CK_LEVEL_1
 10
76.65478376158006
 20
31.98790383852572
 30
0.0
  0
VERTEX
  5
73D
  8
CK_LEVEL_1
 10
76.66059292384273
 20
32.017469922535
 30
0.0
  0
VERTEX
  5
73E
  8
CK_LEVEL_1
 10
76.66795651455391
 20
32.04697817089011
 30
0.0
  0
VERTEX
  5
73F
  8
CK_LEVEL_1
 10
76.67689985111258
 20
32.07637984529499
 30
0.0
  0
VERTEX
  5
740
  8
CK_LEVEL_1
 10
76.68744774023423
 20
32.10562606468928
 30
0.0
  0
VERTEX
  5
741
  8
CK_LEVEL_1
 10
76.69962444414193
 20
32.13466789632919
 30
0.0
  0
VERTEX
  5
742
  8
CK_LEVEL_1
 10
76.71345367024469
 20
32.16345646358225
 30
0.0
  0
VERTEX
  5
743
  8
CK_LEVEL_1
 10
76.72883814918725
 20
32.19172178612992
 30
0.0
  0
VERTEX
  5
744
  8
CK_LEVEL_1
 10
78.21121168133483
 20
34.7592680596067
 30
0.0
  0
VERTEX
  5
745
  8
CK_LEVEL_1
 10
80.12729340552245
 20
34.75778973170924
 30
0.0
 42
0.5780240983944969
  0
VERTEX
  5
746
  8
CK_LEVEL_1
 10
80.32623485958969
 20
35.10319870038295
 30
0.0
  0
VERTEX
  5
747
  8
CK_LEVEL_1
 10
79.36051128417283
 20
36.74991336484015
 30
0.0
  0
VERTEX
  5
748
  8
CK_LEVEL_1
 10
80.33732242222834
 20
38.44179988535082
 30
0.0
  0
VERTEX
  5
749
  8
CK_LEVEL_1
 10
80.34933721051982
 20
38.46176329763951
 30
0.0
  0
VERTEX
  5
74A
  8
CK_LEVEL_1
 10
80.36202726027557
 20
38.48120472208878
 30
0.0
  0
VERTEX
  5
74B
  8
CK_LEVEL_1
 10
80.37527856824897
 20
38.4999666046095
 30
0.0
  0
VERTEX
  5
74C
  8
CK_LEVEL_1
 10
80.38907081452419
 20
38.51804735402477
 30
0.0
  0
VERTEX
  5
74D
  8
CK_LEVEL_1
 10
80.40338356953919
 20
38.53544548814155
 30
0.0
  0
VERTEX
  5
74E
  8
CK_LEVEL_1
 10
80.41819631343299
 20
38.55215964864313
 30
0.0
  0
VERTEX
  5
74F
  8
CK_LEVEL_1
 10
80.43348845341973
 20
38.56818860887763
 30
0.0
  0
VERTEX
  5
750
  8
CK_LEVEL_1
 10
80.44923934581504
 20
38.58353128223946
 30
0.0
  0
VERTEX
  5
751
  8
CK_LEVEL_1
 10
80.46542830949795
 20
38.59818671926071
 30
0.0
  0
VERTEX
  5
752
  8
CK_LEVEL_1
 10
80.48203465008612
 20
38.61215411274846
 30
0.0
  0
VERTEX
  5
753
  8
CK_LEVEL_1
 10
80.49903767361013
 20
38.62543279054269
 30
0.0
  0
VERTEX
  5
754
  8
CK_LEVEL_1
 10
80.51641670675974
 20
38.63802221350996
 30
0.0
  0
VERTEX
  5
755
  8
CK_LEVEL_1
 10
80.53415110745311
 20
38.64992196377405
 30
0.0
  0
VERTEX
  5
756
  8
CK_LEVEL_1
 10
80.55222028075434
 20
38.66113173783704
 30
0.0
  0
VERTEX
  5
757
  8
CK_LEVEL_1
 10
80.57060368281748
 20
38.67165133110696
 30
0.0
  0
VERTEX
  5
758
  8
CK_LEVEL_1
 10
80.6059603087142
 20
38.69025860254253
 30
0.0
  0
VERTEX
  5
759
  8
CK_LEVEL_1
 10
82.81887959578359
 20
34.87233660107189
 30
0.0
 42
0.2671821859585237
  0
VERTEX
  5
75A
  8
CK_LEVEL_1
 10
83.01766805916343
 20
34.75778973170924
 30
0.0
  0
VERTEX
  5
75B
  8
CK_LEVEL_1
 10
83.51723882047715
 20
34.76453805882223
 30
0.0
  0
VERTEX
  5
75C
  8
CK_LEVEL_1
 10
85.00265396205737
 20
32.19172356327307
 30
0.0
  0
VERTEX
  5
75D
  8
CK_LEVEL_1
 10
85.01715655095055
 20
32.16509151429581
 30
0.0
  0
VERTEX
  5
75E
  8
CK_LEVEL_1
 10
85.03033557077799
 20
32.13772629533749
 30
0.0
  0
VERTEX
  5
75F
  8
CK_LEVEL_1
 10
85.04207216667359
 20
32.10990294124311
 30
0.0
  0
VERTEX
  5
760
  8
CK_LEVEL_1
 10
85.05236764717426
 20
32.08167611919789
 30
0.0
  0
SEQEND
  5
E7E
  8
CK_LEVEL_1
  0
POLYLINE
  5
FE
  8
CK_LEVEL_1
 66
     1
 10
0.0
 20
0.0
 30
0.0
 70
     1
  0
VERTEX
  5
761
  8
CK_LEVEL_1
 10
66.87452162954197
 20
32.05310032373741
 30
0.0
  0
VERTEX
  5
762
  8
CK_LEVEL_1
 10
66.86710370170913
 20
32.0242298655606
 30
0.0
  0
VERTEX
  5
763
  8
CK_LEVEL_1
 10
66.86112194951458
 20
31.99511887827835
 30
0.0
  0
VERTEX
  5
764
  8
CK_LEVEL_1
 10
66.85657453667719
 20
31.96582133332056
 30
0.0
  0
VERTEX
  5
765
  8
CK_LEVEL_1
 10
66.85345959601898
 20
31.93639106061285
 30
0.0
  0
VERTEX
  5
766
  8
CK_LEVEL_1
 10
66.85177525814345
 20
31.90688177542604
 30
0.0
  0
VERTEX
  5
767
  8
CK_LEVEL_1
 10
66.85151967327586
 20
31.87734710870139
 30
0.0
  0
VERTEX
  5
768
  8
CK_LEVEL_1
 10
66.85269102505194
 20
31.84784064760409
 30
0.0
  0
VERTEX
  5
769
  8
CK_LEVEL_1
 10
66.85528753622329
 20
31.81841596381976
 30
0.0
  0
VERTEX
  5
76A
  8
CK_LEVEL_1
 10
66.85930746642124
 20
31.78912665496667
 30
0.0
  0
VERTEX
  5
76B
  8
CK_LEVEL_1
 10
66.86474910154418
 20
31.76002638004418
 30
0.0
  0
VERTEX
  5
76C
  8
CK_LEVEL_1
 10
66.87515170683106
 20
31.71627687818625
 30
0.0
  0
VERTEX
  5
76D
  8
CK_LEVEL_1
 10
75.26396960477425
 20
31.71240484418189
 30
0.0
  0
VERTEX
  5
76E
  8
CK_LEVEL_1
 10
75.27463383571497
 20
31.75504714851998
 30
0.0
  0
VERTEX
  5
76F
  8
CK_LEVEL_1
 10
75.28030782527567
 20
31.78335684704446
 30
0.0
  0
VERTEX
  5
770
  8
CK_LEVEL_1
 10
75.28464070226137
 20
31.81198753193469
 30
0.0
  0
VERTEX
  5
771
  8
CK_LEVEL_1
 10
75.28760540246186
 20
31.84089303218737
 30
0.0
  0
VERTEX
  5
772
  8
CK_LEVEL_1
 10
75.2891748480523
 20
31.87002687002662
 30
0.0
  0
VERTEX
  5
773
  8
CK_LEVEL_1
 10
75.28932200320878
 20
31.89934222723498
 30
0.0
  0
VERTEX
  5
774
  8
CK_LEVEL_1
 10
75.28801993842839
 20
31.92879192661788
 30
0.0
  0
VERTEX
  5
775
  8
CK_LEVEL_1
 10
75.28524190061644
 20
31.95832843040473
 30
0.0
  0
VERTEX
  5
776
  8
CK_LEVEL_1
 10
75.280961388259
 20
31.98790383852572
 30
0.0
  0
VERTEX
  5
777
  8
CK_LEVEL_1
 10
75.27515222599634
 20
32.017469922535
 30
0.0
  0
VERTEX
  5
778
  8
CK_LEVEL_1
 10
75.26778863528516
 20
32.04697817089011
 30
0.0
  0
VERTEX
  5
779
  8
CK_LEVEL_1
 10
75.25884529872648
 20
32.07637984529499
 30
0.0
  0
VERTEX
  5
77A
  8
CK_LEVEL_1
 10
75.24829740960483
 20
32.10562606468928
 30
0.0
  0
VERTEX
  5
77B
  8
CK_LEVEL_1
 10
75.23612070569713
 20
32.13466789632919
 30
0.0
  0
VERTEX
  5
77C
  8
CK_LEVEL_1
 10
75.22229147959438
 20
32.16345646358225
 30
0.0
  0
VERTEX
  5
77D
  8
CK_LEVEL_1
 10
75.20690700065181
 20
32.19172178612992
 30
0.0
  0
VERTEX
  5
77E
  8
CK_LEVEL_1
 10
73.72453346850423
 20
34.7592680596067
 30
0.0
  0
VERTEX
  5
77F
  8
CK_LEVEL_1
 10
71.80845174431661
 20
34.75778973170924
 30
0.0
 42
-0.5780240983944969
  0
VERTEX
  5
780
  8
CK_LEVEL_1
 10
71.60951029024937
 20
35.10319870038295
 30
0.0
  0
VERTEX
  5
781
  8
CK_LEVEL_1
 10
72.57523386566623
 20
36.74991336484015
 30
0.0
  0
VERTEX
  5
782
  8
CK_LEVEL_1
 10
71.59842272761072
 20
38.44179988535082
 30
0.0
  0
VERTEX
  5
783
  8
CK_LEVEL_1
 10
71.58640793931924
 20
38.46176329763951
 30
0.0
  0
VERTEX
  5
784
  8
CK_LEVEL_1
 10
71.5737178895635
 20
38.48120472208878
 30
0.0
  0
VERTEX
  5
785
  8
CK_LEVEL_1
 10
71.56046658159009
 20
38.4999666046095
 30
0.0
  0
VERTEX
  5
786
  8
CK_LEVEL_1
 10
71.54667433531488
 20
38.51804735402477
 30
0.0
  0
VERTEX
  5
787
  8
CK_LEVEL_1
 10
71.53236158029988
 20
38.53544548814155
 30
0.0
  0
VERTEX
  5
788
  8
CK_LEVEL_1
 10
71.51754883640608
 20
38.55215964864313
 30
0.0
  0
VERTEX
  5
789
  8
CK_LEVEL_1
 10
71.50225669641934
 20
38.56818860887763
 30
0.0
  0
VERTEX
  5
78A
  8
CK_LEVEL_1
 10
71.48650580402402
 20
38.58353128223946
 30
0.0
  0
VERTEX
  5
78B
  8
CK_LEVEL_1
 10
71.47031684034111
 20
38.59818671926071
 30
0.0
  0
VERTEX
  5
78C
  8
CK_LEVEL_1
 10
71.45371049975294
 20
38.61215411274846
 30
0.0
  0
VERTEX
  5
78D
  8
CK_LEVEL_1
 10
71.43670747622893
 20
38.62543279054269
 30
0.0
  0
VERTEX
  5
78E
  8
CK_LEVEL_1
 10
71.41932844307932
 20
38.63802221350996
 30
0.0
  0
VERTEX
  5
78F
  8
CK_LEVEL_1
 10
71.40159404238595
 20
38.64992196377405
 30
0.0
  0
VERTEX
  5
790
  8
CK_LEVEL_1
 10
71.38352486908472
 20
38.66113173783704
 30
0.0
  0
VERTEX
  5
791
  8
CK_LEVEL_1
 10
71.36514146702159
 20
38.67165133110696
 30
0.0
  0
VERTEX
  5
792
  8
CK_LEVEL_1
 10
71.32978484112486
 20
38.69025860254253
 30
0.0
  0
VERTEX
  5
793
  8
CK_LEVEL_1
 10
69.11686555405548
 20
34.87233660107189
 30
0.0
 42
-0.2671821859585237
  0
VERTEX
  5
794
  8
CK_LEVEL_1
 10
68.91807709067564
 20
34.75778973170924
 30
0.0
  0
VERTEX
  5
795
  8
CK_LEVEL_1
 10
68.41850632936192
 20
34.76453805882223
 30
0.0
  0
VERTEX
  5
796
  8
CK_LEVEL_1
 10
66.9330911877817
 20
32.19172356327307
 30
0.0
  0
VERTEX
  5
797
  8
CK_LEVEL_1
 10
66.91858859888852
 20
32.16509151429581
 30
0.0
  0
VERTEX
  5
798
  8
CK_LEVEL_1
 10
66.90540957906107
 20
32.13772629533749
 30
0.0
  0
VERTEX
  5
799
  8
CK_LEVEL_1
 10
66.89367298316547
 20
32.10990294124311
 30
0.0
  0
VERTEX
  5
79A
  8
CK_LEVEL_1
 10
66.8833775026648
 20
32.08167611919789
 30
0.0
  0
SEQEND
  5
E7F
  8
CK_LEVEL_1
  0
POLYLINE
  5
FF
  8
CK_LEVEL_1
 66
     1
 10
0.0
 20
0.0
 30
0.0
 70
     1
  0
VERTEX
  5
79B
  8
CK_LEVEL_1
 10
66.87452162954197
 20
23.62676803533613
 30
0.0
  0
VERTEX
  5
79C
  8
CK_LEVEL_1
 10
66.86710370170913
 20
23.59789757715932
 30
0.0
  0
VERTEX
  5
79D
  8
CK_LEVEL_1
 10
66.86112194951458
 20
23.56878658987706
 30
0.0
  0
VERTEX
  5
79E
  8
CK_LEVEL_1
 10
66.85657453667719
 20
23.53948904491928
 30
0.0
  0
VERTEX
  5
79F
  8
CK_LEVEL_1
 10
66.85345959601898
 20
23.51005877221156
 30
0.0
  0
VERTEX
  5
7A0
  8
CK_LEVEL_1
 10
66.85177525814345
 20
23.48054948702476
 30
0.0
  0
VERTEX
  5
7A1
  8
CK_LEVEL_1
 10
66.85151967327586
 20
23.4510148203001
 30
0.0
  0
VERTEX
  5
7A2
  8
CK_LEVEL_1
 10
66.85269102505194
 20
23.4215083592028
 30
0.0
  0
VERTEX
  5
7A3
  8
CK_LEVEL_1
 10
66.85528753622329
 20
23.39208367541848
 30
0.0
  0
VERTEX
  5
7A4
  8
CK_LEVEL_1
 10
66.85930746642124
 20
23.36279436656538
 30
0.0
  0
VERTEX
  5
7A5
  8
CK_LEVEL_1
 10
66.86474910154418
 20
23.3336940916429
 30
0.0
  0
VERTEX
  5
7A6
  8
CK_LEVEL_1
 10
66.87515170683106
 20
23.28994458978497
 30
0.0
  0
VERTEX
  5
7A7
  8
CK_LEVEL_1
 10
75.26396960477425
 20
23.28607255578061
 30
0.0
  0
VERTEX
  5
7A8
  8
CK_LEVEL_1
 10
75.27463383571497
 20
23.32871486011869
 30
0.0
  0
VERTEX
  5
7A9
  8
CK_LEVEL_1
 10
75.28030782527567
 20
23.35702455864318
 30
0.0
  0
VERTEX
  5
7AA
  8
CK_LEVEL_1
 10
75.28464070226137
 20
23.38565524353341
 30
0.0
  0
VERTEX
  5
7AB
  8
CK_LEVEL_1
 10
75.28760540246186
 20
23.41456074378608
 30
0.0
  0
VERTEX
  5
7AC
  8
CK_LEVEL_1
 10
75.2891748480523
 20
23.44369458162534
 30
0.0
  0
VERTEX
  5
7AD
  8
CK_LEVEL_1
 10
75.28932200320878
 20
23.4730099388337
 30
0.0
  0
VERTEX
  5
7AE
  8
CK_LEVEL_1
 10
75.28801993842839
 20
23.50245963821659
 30
0.0
  0
VERTEX
  5
7AF
  8
CK_LEVEL_1
 10
75.28524190061644
 20
23.53199614200345
 30
0.0
  0
VERTEX
  5
7B0
  8
CK_LEVEL_1
 10
75.280961388259
 20
23.56157155012444
 30
0.0
  0
VERTEX
  5
7B1
  8
CK_LEVEL_1
 10
75.27515222599634
 20
23.59113763413372
 30
0.0
  0
VERTEX
  5
7B2
  8
CK_LEVEL_1
 10
75.26778863528516
 20
23.62064588248883
 30
0.0
  0
VERTEX
  5
7B3
  8
CK_LEVEL_1
 10
75.25884529872648
 20
23.65004755689371
 30
0.0
  0
VERTEX
  5
7B4
  8
CK_LEVEL_1
 10
75.24829740960483
 20
23.67929377628799
 30
0.0
  0
VERTEX
  5
7B5
  8
CK_LEVEL_1
 10
75.23612070569713
 20
23.70833560792791
 30
0.0
  0
VERTEX
  5
7B6
  8
CK_LEVEL_1
 10
75.22229147959438
 20
23.73712417518097
 30
0.0
  0
VERTEX
  5
7B7
  8
CK_LEVEL_1
 10
75.20690700065181
 20
23.76538949772863
 30
0.0
  0
VERTEX
  5
7B8
  8
CK_LEVEL_1
 10
73.72453346850423
 20
26.33293577120541
 30
0.0
  0
VERTEX
  5
7B9
  8
CK_LEVEL_1
 10
71.80845174431661
 20
26.33145744330795
 30
0.0
 42
-0.5780240983944969
  0
VERTEX
  5
7BA
  8
CK_LEVEL_1
 10
71.60951029024937
 20
26.67686641198166
 30
0.0
  0
VERTEX
  5
7BB
  8
CK_LEVEL_1
 10
72.57523386566623
 20
28.32358107643887
 30
0.0
  0
VERTEX
  5
7BC
  8
CK_LEVEL_1
 10
71.59842272761072
 20
30.01546759694953
 30
0.0
  0
VERTEX
  5
7BD
  8
CK_LEVEL_1
 10
71.58640793931924
 20
30.03543100923822
 30
0.0
  0
VERTEX
  5
7BE
  8
CK_LEVEL_1
 10
71.5737178895635
 20
30.05487243368749
 30
0.0
  0
VERTEX
  5
7BF
  8
CK_LEVEL_1
 10
71.56046658159009
 20
30.07363431620821
 30
0.0
  0
VERTEX
  5
7C0
  8
CK_LEVEL_1
 10
71.54667433531488
 20
30.09171506562349
 30
0.0
  0
VERTEX
  5
7C1
  8
CK_LEVEL_1
 10
71.53236158029988
 20
30.10911319974026
 30
0.0
  0
VERTEX
  5
7C2
  8
CK_LEVEL_1
 10
71.51754883640608
 20
30.12582736024184
 30
0.0
  0
VERTEX
  5
7C3
  8
CK_LEVEL_1
 10
71.50225669641934
 20
30.14185632047635
 30
0.0
  0
VERTEX
  5
7C4
  8
CK_LEVEL_1
 10
71.48650580402402
 20
30.15719899383818
 30
0.0
  0
VERTEX
  5
7C5
  8
CK_LEVEL_1
 10
71.47031684034111
 20
30.17185443085943
 30
0.0
  0
VERTEX
  5
7C6
  8
CK_LEVEL_1
 10
71.45371049975294
 20
30.18582182434717
 30
0.0
  0
VERTEX
  5
7C7
  8
CK_LEVEL_1
 10
71.43670747622893
 20
30.19910050214141
 30
0.0
  0
VERTEX
  5
7C8
  8
CK_LEVEL_1
 10
71.41932844307932
 20
30.21168992510867
 30
0.0
  0
VERTEX
  5
7C9
  8
CK_LEVEL_1
 10
71.40159404238595
 20
30.22358967537276
 30
0.0
  0
VERTEX
  5
7CA
  8
CK_LEVEL_1
 10
71.38352486908472
 20
30.23479944943576
 30
0.0
  0
VERTEX
  5
7CB
  8
CK_LEVEL_1
 10
71.36514146702159
 20
30.24531904270567
 30
0.0
  0
VERTEX
  5
7CC
  8
CK_LEVEL_1
 10
71.32978484112486
 20
30.26392631414124
 30
0.0
  0
VERTEX
  5
7CD
  8
CK_LEVEL_1
 10
69.11686555405548
 20
26.44600431267061
 30
0.0
 42
-0.2671821859585237
  0
VERTEX
  5
7CE
  8
CK_LEVEL_1
 10
68.91807709067564
 20
26.33145744330795
 30
0.0
  0
VERTEX
  5
7CF
  8
CK_LEVEL_1
 10
68.41850632936192
 20
26.33820577042094
 30
0.0
  0
VERTEX
  5
7D0
  8
CK_LEVEL_1
 10
66.9330911877817
 20
23.76539127487179
 30
0.0
  0
VERTEX
  5
7D1
  8
CK_LEVEL_1
 10
66.91858859888852
 20
23.73875922589453
 30
0.0
  0
VERTEX
  5
7D2
  8
CK_LEVEL_1
 10
66.90540957906107
 20
23.7113940069362
 30
0.0
  0
VERTEX
  5
7D3
  8
CK_LEVEL_1
 10
66.89367298316547
 20
23.68357065284182
 30
0.0
  0
VERTEX
  5
7D4
  8
CK_LEVEL_1
 10
66.8833775026648
 20
23.65534383079661
 30
0.0
  0
SEQEND
  5
E80
  8
CK_LEVEL_1
  0
POLYLINE
  5
100
  8
CK_LEVEL_1
 66
     1
 10
0.0
 20
0.0
 30
0.0
 70
     1
  0
VERTEX
  5
7D5
  8
CK_LEVEL_1
 10
85.06122352029709
 20
23.62676803533613
 30
0.0
  0
VERTEX
  5
7D6
  8
CK_LEVEL_1
 10
85.06864144812994
 20
23.59789757715932
 30
0.0
  0
VERTEX
  5
7D7
  8
CK_LEVEL_1
 10
85.07462320032448
 20
23.56878658987706
 30
0.0
  0
VERTEX
  5
7D8
  8
CK_LEVEL_1
 10
85.07917061316188
 20
23.53948904491928
 30
0.0
  0
VERTEX
  5
7D9
  8
CK_LEVEL_1
 10
85.08228555382009
 20
23.51005877221156
 30
0.0
  0
VERTEX
  5
7DA
  8
CK_LEVEL_1
 10
85.08396989169562
 20
23.48054948702476
 30
0.0
  0
VERTEX
  5
7DB
  8
CK_LEVEL_1
 10
85.0842254765632
 20
23.4510148203001
 30
0.0
  0
VERTEX
  5
7DC
  8
CK_LEVEL_1
 10
85.08305412478713
 20
23.4215083592028
 30
0.0
  0
VERTEX
  5
7DD
  8
CK_LEVEL_1
 10
85.08045761361578
 20
23.39208367541848
 30
0.0
  0
VERTEX
  5
7DE
  8
CK_LEVEL_1
 10
85.07643768341782
 20
23.36279436656538
 30
0.0
  0
VERTEX
  5
7DF
  8
CK_LEVEL_1
 10
85.07099604829489
 20
23.3336940916429
 30
0.0
  0
VERTEX
  5
7E0
  8
CK_LEVEL_1
 10
85.060593443008
 20
23.28994458978497
 30
0.0
  0
VERTEX
  5
7E1
  8
CK_LEVEL_1
 10
76.67177554506482
 20
23.28607255578061
 30
0.0
  0
VERTEX
  5
7E2
  8
CK_LEVEL_1
 10
76.6611113141241
 20
23.32871486011869
 30
0.0
  0
VERTEX
  5
7E3
  8
CK_LEVEL_1
 10
76.6554373245634
 20
23.35702455864318
 30
0.0
  0
VERTEX
  5
7E4
  8
CK_LEVEL_1
 10
76.6511044475777
 20
23.38565524353341
 30
0.0
  0
VERTEX
  5
7E5
  8
CK_LEVEL_1
 10
76.6481397473772
 20
23.41456074378608
 30
0.0
  0
VERTEX
  5
7E6
  8
CK_LEVEL_1
 10
76.64657030178677
 20
23.44369458162534
 30
0.0
  0
VERTEX
  5
7E7
  8
CK_LEVEL_1
 10
76.64642314663028
 20
23.4730099388337
 30
0.0
  0
VERTEX
  5
7E8
  8
CK_LEVEL_1
 10
76.64772521141067
 20
23.50245963821659
 30
0.0
  0
VERTEX
  5
7E9
  8
CK_LEVEL_1
 10
76.65050324922262
 20
23.53199614200345
 30
0.0
  0
VERTEX
  5
7EA
  8
CK_LEVEL_1
 10
76.65478376158006
 20
23.56157155012444
 30
0.0
  0
VERTEX
  5
7EB
  8
CK_LEVEL_1
 10
76.66059292384273
 20
23.59113763413372
 30
0.0
  0
VERTEX
  5
7EC
  8
CK_LEVEL_1
 10
76.66795651455391
 20
23.62064588248883
 30
0.0
  0
VERTEX
  5
7ED
  8
CK_LEVEL_1
 10
76.67689985111258
 20
23.65004755689371
 30
0.0
  0
VERTEX
  5
7EE
  8
CK_LEVEL_1
 10
76.68744774023423
 20
23.67929377628799
 30
0.0
  0
VERTEX
  5
7EF
  8
CK_LEVEL_1
 10
76.69962444414193
 20
23.70833560792791
 30
0.0
  0
VERTEX
  5
7F0
  8
CK_LEVEL_1
 10
76.71345367024469
 20
23.73712417518097
 30
0.0
  0
VERTEX
  5
7F1
  8
CK_LEVEL_1
 10
76.72883814918725
 20
23.76538949772863
 30
0.0
  0
VERTEX
  5
7F2
  8
CK_LEVEL_1
 10
78.21121168133483
 20
26.33293577120541
 30
0.0
  0
VERTEX
  5
7F3
  8
CK_LEVEL_1
 10
80.12729340552245
 20
26.33145744330795
 30
0.0
 42
0.5780240983944969
  0
VERTEX
  5
7F4
  8
CK_LEVEL_1
 10
80.32623485958969
 20
26.67686641198166
 30
0.0
  0
VERTEX
  5
7F5
  8
CK_LEVEL_1
 10
79.36051128417283
 20
28.32358107643887
 30
0.0
  0
VERTEX
  5
7F6
  8
CK_LEVEL_1
 10
80.33732242222834
 20
30.01546759694953
 30
0.0
  0
VERTEX
  5
7F7
  8
CK_LEVEL_1
 10
80.34933721051982
 20
30.03543100923822
 30
0.0
  0
VERTEX
  5
7F8
  8
CK_LEVEL_1
 10
80.36202726027557
 20
30.05487243368749
 30
0.0
  0
VERTEX
  5
7F9
  8
CK_LEVEL_1
 10
80.37527856824897
 20
30.07363431620821
 30
0.0
  0
VERTEX
  5
7FA
  8
CK_LEVEL_1
 10
80.38907081452419
 20
30.09171506562349
 30
0.0
  0
VERTEX
  5
7FB
  8
CK_LEVEL_1
 10
80.40338356953919
 20
30.10911319974026
 30
0.0
  0
VERTEX
  5
7FC
  8
CK_LEVEL_1
 10
80.41819631343299
 20
30.12582736024184
 30
0.0
  0
VERTEX
  5
7FD
  8
CK_LEVEL_1
 10
80.43348845341973
 20
30.14185632047635
 30
0.0
  0
VERTEX
  5
7FE
  8
CK_LEVEL_1
 10
80.44923934581504
 20
30.15719899383818
 30
0.0
  0
VERTEX
  5
7FF
  8
CK_LEVEL_1
 10
80.46542830949795
 20
30.17185443085943
 30
0.0
  0
VERTEX
  5
800
  8
CK_LEVEL_1
 10
80.48203465008612
 20
30.18582182434717
 30
0.0
  0
VERTEX
  5
801
  8
CK_LEVEL_1
 10
80.49903767361013
 20
30.19910050214141
 30
0.0
  0
VERTEX
  5
802
  8
CK_LEVEL_1
 10
80.51641670675974
 20
30.21168992510867
 30
0.0
  0
VERTEX
  5
803
  8
CK_LEVEL_1
 10
80.53415110745311
 20
30.22358967537276
 30
0.0
  0
VERTEX
  5
804
  8
CK_LEVEL_1
 10
80.55222028075434
 20
30.23479944943576
 30
0.0
  0
VERTEX
  5
805
  8
CK_LEVEL_1
 10
80.57060368281748
 20
30.24531904270567
 30
0.0
  0
VERTEX
  5
806
  8
CK_LEVEL_1
 10
80.6059603087142
 20
30.26392631414124
 30
0.0
  0
VERTEX
  5
807
  8
CK_LEVEL_1
 10
82.81887959578359
 20
26.44600431267061
 30
0.0
 42
0.2671821859585237
  0
VERTEX
  5
808
  8
CK_LEVEL_1
 10
83.01766805916343
 20
26.33145744330795
 30
0.0
  0
VERTEX
  5
809
  8
CK_LEVEL_1
 10
83.51723882047715
 20
26.33820577042094
 30
0.0
  0
VERTEX
  5
80A
  8
CK_LEVEL_1
 10
85.00265396205737
 20
23.76539127487179
 30
0.0
  0
VERTEX
  5
80B
  8
CK_LEVEL_1
 10
85.01715655095055
 20
23.73875922589453
 30
0.0
  0
VERTEX
  5
80C
  8
CK_LEVEL_1
 10
85.03033557077799
 20
23.7113940069362
 30
0.0
  0
VERTEX
  5
80D
  8
CK_LEVEL_1
 10
85.04207216667359
 20
23.68357065284182
 30
0.0
  0
VERTEX
  5
80E
  8
CK_LEVEL_1
 10
85.05236764717426
 20
23.65534383079661
 30
0.0
  0
SEQEND
  5
E81
  8
CK_LEVEL_1
  0
POLYLINE
  5
101
  8
CK_LEVEL_1
 66
     1
 10
0.0
 20
0.0
 30
0.0
 70
     1
  0
VERTEX
  5
80F
  8
CK_LEVEL_1
 10
85.06122352029709
 20
15.20043574693484
 30
0.0
  0
VERTEX
  5
810
  8
CK_LEVEL_1
 10
85.06864144812994
 20
15.17156528875803
 30
0.0
  0
VERTEX
  5
811
  8
CK_LEVEL_1
 10
85.07462320032448
 20
15.14245430147578
 30
0.0
  0
VERTEX
  5
812
  8
CK_LEVEL_1
 10
85.07917061316188
 20
15.11315675651799
 30
0.0
  0
VERTEX
  5
813
  8
CK_LEVEL_1
 10
85.08228555382009
 20
15.08372648381028
 30
0.0
  0
VERTEX
  5
814
  8
CK_LEVEL_1
 10
85.08396989169562
 20
15.05421719862347
 30
0.0
  0
VERTEX
  5
815
  8
CK_LEVEL_1
 10
85.0842254765632
 20
15.02468253189882
 30
0.0
  0
VERTEX
  5
816
  8
CK_LEVEL_1
 10
85.08305412478713
 20
14.99517607080152
 30
0.0
  0
VERTEX
  5
817
  8
CK_LEVEL_1
 10
85.08045761361578
 20
14.96575138701719
 30
0.0
  0
VERTEX
  5
818
  8
CK_LEVEL_1
 10
85.07643768341782
 20
14.93646207816409
 30
0.0
  0
VERTEX
  5
819
  8
CK_LEVEL_1
 10
85.07099604829489
 20
14.90736180324161
 30
0.0
  0
VERTEX
  5
81A
  8
CK_LEVEL_1
 10
85.060593443008
 20
14.86361230138368
 30
0.0
  0
VERTEX
  5
81B
  8
CK_LEVEL_1
 10
76.67177554506482
 20
14.85974026737932
 30
0.0
  0
VERTEX
  5
81C
  8
CK_LEVEL_1
 10
76.6611113141241
 20
14.90238257171741
 30
0.0
  0
VERTEX
  5
81D
  8
CK_LEVEL_1
 10
76.6554373245634
 20
14.93069227024189
 30
0.0
  0
VERTEX
  5
81E
  8
CK_LEVEL_1
 10
76.6511044475777
 20
14.95932295513212
 30
0.0
  0
VERTEX
  5
81F
  8
CK_LEVEL_1
 10
76.6481397473772
 20
14.9882284553848
 30
0.0
  0
VERTEX
  5
820
  8
CK_LEVEL_1
 10
76.64657030178677
 20
15.01736229322405
 30
0.0
  0
VERTEX
  5
821
  8
CK_LEVEL_1
 10
76.64642314663028
 20
15.04667765043241
 30
0.0
  0
VERTEX
  5
822
  8
CK_LEVEL_1
 10
76.64772521141067
 20
15.07612734981531
 30
0.0
  0
VERTEX
  5
823
  8
CK_LEVEL_1
 10
76.65050324922262
 20
15.10566385360216
 30
0.0
  0
VERTEX
  5
824
  8
CK_LEVEL_1
 10
76.65478376158006
 20
15.13523926172315
 30
0.0
  0
VERTEX
  5
825
  8
CK_LEVEL_1
 10
76.66059292384273
 20
15.16480534573243
 30
0.0
  0
VERTEX
  5
826
  8
CK_LEVEL_1
 10
76.66795651455391
 20
15.19431359408754
 30
0.0
  0
VERTEX
  5
827
  8
CK_LEVEL_1
 10
76.67689985111258
 20
15.22371526849242
 30
0.0
  0
VERTEX
  5
828
  8
CK_LEVEL_1
 10
76.68744774023423
 20
15.2529614878867
 30
0.0
  0
VERTEX
  5
829
  8
CK_LEVEL_1
 10
76.69962444414193
 20
15.28200331952662
 30
0.0
  0
VERTEX
  5
82A
  8
CK_LEVEL_1
 10
76.71345367024469
 20
15.31079188677968
 30
0.0
  0
VERTEX
  5
82B
  8
CK_LEVEL_1
 10
76.72883814918725
 20
15.33905720932735
 30
0.0
  0
VERTEX
  5
82C
  8
CK_LEVEL_1
 10
78.21121168133483
 20
17.90660348280413
 30
0.0
  0
VERTEX
  5
82D
  8
CK_LEVEL_1
 10
80.12729340552245
 20
17.90512515490667
 30
0.0
 42
0.5780240983944969
  0
VERTEX
  5
82E
  8
CK_LEVEL_1
 10
80.32623485958969
 20
18.25053412358038
 30
0.0
  0
VERTEX
  5
82F
  8
CK_LEVEL_1
 10
79.36051128417283
 20
19.89724878803759
 30
0.0
  0
VERTEX
  5
830
  8
CK_LEVEL_1
 10
80.33732242222834
 20
21.58913530854825
 30
0.0
  0
VERTEX
  5
831
  8
CK_LEVEL_1
 10
80.34933721051982
 20
21.60909872083694
 30
0.0
  0
VERTEX
  5
832
  8
CK_LEVEL_1
 10
80.36202726027557
 20
21.62854014528621
 30
0.0
  0
VERTEX
  5
833
  8
CK_LEVEL_1
 10
80.37527856824897
 20
21.64730202780693
 30
0.0
  0
VERTEX
  5
834
  8
CK_LEVEL_1
 10
80.38907081452419
 20
21.66538277722221
 30
0.0
  0
VERTEX
  5
835
  8
CK_LEVEL_1
 10
80.40338356953919
 20
21.68278091133898
 30
0.0
  0
VERTEX
  5
836
  8
CK_LEVEL_1
 10
80.41819631343299
 20
21.69949507184056
 30
0.0
  0
VERTEX
  5
837
  8
CK_LEVEL_1
 10
80.43348845341973
 20
21.71552403207507
 30
0.0
  0
VERTEX
  5
838
  8
CK_LEVEL_1
 10
80.44923934581504
 20
21.7308667054369
 30
0.0
  0
VERTEX
  5
839
  8
CK_LEVEL_1
 10
80.46542830949795
 20
21.74552214245814
 30
0.0
  0
VERTEX
  5
83A
  8
CK_LEVEL_1
 10
80.48203465008612
 20
21.75948953594589
 30
0.0
  0
VERTEX
  5
83B
  8
CK_LEVEL_1
 10
80.49903767361013
 20
21.77276821374012
 30
0.0
  0
VERTEX
  5
83C
  8
CK_LEVEL_1
 10
80.51641670675974
 20
21.78535763670739
 30
0.0
  0
VERTEX
  5
83D
  8
CK_LEVEL_1
 10
80.53415110745311
 20
21.79725738697148
 30
0.0
  0
VERTEX
  5
83E
  8
CK_LEVEL_1
 10
80.55222028075434
 20
21.80846716103447
 30
0.0
  0
VERTEX
  5
83F
  8
CK_LEVEL_1
 10
80.57060368281748
 20
21.81898675430439
 30
0.0
  0
VERTEX
  5
840
  8
CK_LEVEL_1
 10
80.6059603087142
 20
21.83759402573996
 30
0.0
  0
VERTEX
  5
841
  8
CK_LEVEL_1
 10
82.81887959578359
 20
18.01967202426933
 30
0.0
 42
0.2671821859585237
  0
VERTEX
  5
842
  8
CK_LEVEL_1
 10
83.01766805916343
 20
17.90512515490667
 30
0.0
  0
VERTEX
  5
843
  8
CK_LEVEL_1
 10
83.51723882047715
 20
17.91187348201966
 30
0.0
  0
VERTEX
  5
844
  8
CK_LEVEL_1
 10
85.00265396205737
 20
15.3390589864705
 30
0.0
  0
VERTEX
  5
845
  8
CK_LEVEL_1
 10
85.01715655095055
 20
15.31242693749324
 30
0.0
  0
VERTEX
  5
846
  8
CK_LEVEL_1
 10
85.03033557077799
 20
15.28506171853492
 30
0.0
  0
VERTEX
  5
847
  8
CK_LEVEL_1
 10
85.04207216667359
 20
15.25723836444054
 30
0.0
  0
VERTEX
  5
848
  8
CK_LEVEL_1
 10
85.05236764717426
 20
15.22901154239532
 30
0.0
  0
SEQEND
  5
E82
  8
CK_LEVEL_1
  0
POLYLINE
  5
102
  8
CK_LEVEL_1
 66
     1
 10
0.0
 20
0.0
 30
0.0
 70
     1
  0
VERTEX
  5
849
  8
CK_LEVEL_1
 10
66.87452162954197
 20
15.20043574693484
 30
0.0
  0
VERTEX
  5
84A
  8
CK_LEVEL_1
 10
66.86710370170913
 20
15.17156528875803
 30
0.0
  0
VERTEX
  5
84B
  8
CK_LEVEL_1
 10
66.86112194951458
 20
15.14245430147578
 30
0.0
  0
VERTEX
  5
84C
  8
CK_LEVEL_1
 10
66.85657453667719
 20
15.11315675651799
 30
0.0
  0
VERTEX
  5
84D
  8
CK_LEVEL_1
 10
66.85345959601898
 20
15.08372648381028
 30
0.0
  0
VERTEX
  5
84E
  8
CK_LEVEL_1
 10
66.85177525814345
 20
15.05421719862347
 30
0.0
  0
VERTEX
  5
84F
  8
CK_LEVEL_1
 10
66.85151967327586
 20
15.02468253189882
 30
0.0
  0
VERTEX
  5
850
  8
CK_LEVEL_1
 10
66.85269102505194
 20
14.99517607080152
 30
0.0
  0
VERTEX
  5
851
  8
CK_LEVEL_1
 10
66.85528753622329
 20
14.96575138701719
 30
0.0
  0
VERTEX
  5
852
  8
CK_LEVEL_1
 10
66.85930746642124
 20
14.93646207816409
 30
0.0
  0
VERTEX
  5
853
  8
CK_LEVEL_1
 10
66.86474910154418
 20
14.90736180324161
 30
0.0
  0
VERTEX
  5
854
  8
CK_LEVEL_1
 10
66.87515170683106
 20
14.86361230138368
 30
0.0
  0
VERTEX
  5
855
  8
CK_LEVEL_1
 10
75.26396960477425
 20
14.85974026737932
 30
0.0
  0
VERTEX
  5
856
  8
CK_LEVEL_1
 10
75.27463383571497
 20
14.90238257171741
 30
0.0
  0
VERTEX
  5
857
  8
CK_LEVEL_1
 10
75.28030782527567
 20
14.93069227024189
 30
0.0
  0
VERTEX
  5
858
  8
CK_LEVEL_1
 10
75.28464070226137
 20
14.95932295513212
 30
0.0
  0
VERTEX
  5
859
  8
CK_LEVEL_1
 10
75.28760540246186
 20
14.9882284553848
 30
0.0
  0
VERTEX
  5
85A
  8
CK_LEVEL_1
 10
75.2891748480523
 20
15.01736229322405
 30
0.0
  0
VERTEX
  5
85B
  8
CK_LEVEL_1
 10
75.28932200320878
 20
15.04667765043241
 30
0.0
  0
VERTEX
  5
85C
  8
CK_LEVEL_1
 10
75.28801993842839
 20
15.07612734981531
 30
0.0
  0
VERTEX
  5
85D
  8
CK_LEVEL_1
 10
75.28524190061644
 20
15.10566385360216
 30
0.0
  0
VERTEX
  5
85E
  8
CK_LEVEL_1
 10
75.280961388259
 20
15.13523926172315
 30
0.0
  0
VERTEX
  5
85F
  8
CK_LEVEL_1
 10
75.27515222599634
 20
15.16480534573243
 30
0.0
  0
VERTEX
  5
860
  8
CK_LEVEL_1
 10
75.26778863528516
 20
15.19431359408754
 30
0.0
  0
VERTEX
  5
861
  8
CK_LEVEL_1
 10
75.25884529872648
 20
15.22371526849242
 30
0.0
  0
VERTEX
  5
862
  8
CK_LEVEL_1
 10
75.24829740960483
 20
15.2529614878867
 30
0.0
  0
VERTEX
  5
863
  8
CK_LEVEL_1
 10
75.23612070569713
 20
15.28200331952662
 30
0.0
  0
VERTEX
  5
864
  8
CK_LEVEL_1
 10
75.22229147959438
 20
15.31079188677968
 30
0.0
  0
VERTEX
  5
865
  8
CK_LEVEL_1
 10
75.20690700065181
 20
15.33905720932735
 30
0.0
  0
VERTEX
  5
866
  8
CK_LEVEL_1
 10
73.72453346850423
 20
17.90660348280413
 30
0.0
  0
VERTEX
  5
867
  8
CK_LEVEL_1
 10
71.80845174431661
 20
17.90512515490667
 30
0.0
 42
-0.5780240983944969
  0
VERTEX
  5
868
  8
CK_LEVEL_1
 10
71.60951029024937
 20
18.25053412358038
 30
0.0
  0
VERTEX
  5
869
  8
CK_LEVEL_1
 10
72.57523386566623
 20
19.89724878803759
 30
0.0
  0
VERTEX
  5
86A
  8
CK_LEVEL_1
 10
71.59842272761072
 20
21.58913530854825
 30
0.0
  0
VERTEX
  5
86B
  8
CK_LEVEL_1
 10
71.58640793931924
 20
21.60909872083694
 30
0.0
  0
VERTEX
  5
86C
  8
CK_LEVEL_1
 10
71.5737178895635
 20
21.62854014528621
 30
0.0
  0
VERTEX
  5
86D
  8
CK_LEVEL_1
 10
71.56046658159009
 20
21.64730202780693
 30
0.0
  0
VERTEX
  5
86E
  8
CK_LEVEL_1
 10
71.54667433531488
 20
21.66538277722221
 30
0.0
  0
VERTEX
  5
86F
  8
CK_LEVEL_1
 10
71.53236158029988
 20
21.68278091133898
 30
0.0
  0
VERTEX
  5
870
  8
CK_LEVEL_1
 10
71.51754883640608
 20
21.69949507184056
 30
0.0
  0
VERTEX
  5
871
  8
CK_LEVEL_1
 10
71.50225669641934
 20
21.71552403207507
 30
0.0
  0
VERTEX
  5
872
  8
CK_LEVEL_1
 10
71.48650580402402
 20
21.7308667054369
 30
0.0
  0
VERTEX
  5
873
  8
CK_LEVEL_1
 10
71.47031684034111
 20
21.74552214245814
 30
0.0
  0
VERTEX
  5
874
  8
CK_LEVEL_1
 10
71.45371049975294
 20
21.75948953594589
 30
0.0
  0
VERTEX
  5
875
  8
CK_LEVEL_1
 10
71.43670747622893
 20
21.77276821374012
 30
0.0
  0
VERTEX
  5
876
  8
CK_LEVEL_1
 10
71.41932844307932
 20
21.78535763670739
 30
0.0
  0
VERTEX
  5
877
  8
CK_LEVEL_1
 10
71.40159404238595
 20
21.79725738697148
 30
0.0
  0
VERTEX
  5
878
  8
CK_LEVEL_1
 10
71.38352486908472
 20
21.80846716103447
 30
0.0
  0
VERTEX
  5
879
  8
CK_LEVEL_1
 10
71.36514146702159
 20
21.81898675430439
 30
0.0
  0
VERTEX
  5
87A
  8
CK_LEVEL_1
 10
71.32978484112486
 20
21.83759402573996
 30
0.0
  0
VERTEX
  5
87B
  8
CK_LEVEL_1
 10
69.11686555405548
 20
18.01967202426933
 30
0.0
 42
-0.2671821859585237
  0
VERTEX
  5
87C
  8
CK_LEVEL_1
 10
68.91807709067564
 20
17.90512515490667
 30
0.0
  0
VERTEX
  5
87D
  8
CK_LEVEL_1
 10
68.41850632936192
 20
17.91187348201966
 30
0.0
  0
VERTEX
  5
87E
  8
CK_LEVEL_1
 10
66.9330911877817
 20
15.3390589864705
 30
0.0
  0
VERTEX
  5
87F
  8
CK_LEVEL_1
 10
66.91858859888852
 20
15.31242693749324
 30
0.0
  0
VERTEX
  5
880
  8
CK_LEVEL_1
 10
66.90540957906107
 20
15.28506171853492
 30
0.0
  0
VERTEX
  5
881
  8
CK_LEVEL_1
 10
66.89367298316547
 20
15.25723836444054
 30
0.0
  0
VERTEX
  5
882
  8
CK_LEVEL_1
 10
66.8833775026648
 20
15.22901154239532
 30
0.0
  0
SEQEND
  5
E83
  8
CK_LEVEL_1
  0
POLYLINE
  5
103
  8
CK_LEVEL_1
 66
     1
 10
0.0
 20
0.0
 30
0.0
 70
     1
  0
VERTEX
  5
883
  8
CK_LEVEL_1
 10
49.58805757515591
 20
39.38188789822766
 30
0.0
  0
VERTEX
  5
884
  8
CK_LEVEL_1
 10
49.60730641998742
 20
39.38154058387146
 30
0.0
  0
VERTEX
  5
885
  8
CK_LEVEL_1
 10
51.60846360822939
 20
39.38154058387109
 30
0.0
  0
VERTEX
  5
886
  8
CK_LEVEL_1
 10
52.03263199558195
 20
40.11578799245562
 30
0.0
 42
-0.2673148700944858
  0
VERTEX
  5
887
  8
CK_LEVEL_1
 10
52.23154171218479
 20
40.23032241074262
 30
0.0
  0
VERTEX
  5
888
  8
CK_LEVEL_1
 10
55.72663935636587
 20
40.22801667620348
 30
0.0
  0
VERTEX
  5
889
  8
CK_LEVEL_1
 10
54.54331184283375
 20
42.27760005163418
 30
0.0
  0
VERTEX
  5
88A
  8
CK_LEVEL_1
 10
53.6823563678617
 20
42.27032241074262
 30
0.0
 42
-0.5778270611202604
  0
VERTEX
  5
88B
  8
CK_LEVEL_1
 10
53.48346207068411
 20
42.61568027977174
 30
0.0
  0
VERTEX
  5
88C
  8
CK_LEVEL_1
 10
53.9220910759316
 20
43.35358598262037
 30
0.0
  0
VERTEX
  5
88D
  8
CK_LEVEL_1
 10
52.91133294061382
 20
45.10427042715401
 30
0.0
  0
VERTEX
  5
88E
  8
CK_LEVEL_1
 10
52.90179786219545
 20
45.12014313986083
 30
0.0
  0
VERTEX
  5
88F
  8
CK_LEVEL_1
 10
52.89166073063501
 20
45.13576465953338
 30
0.0
  0
VERTEX
  5
890
  8
CK_LEVEL_1
 10
52.88102465041487
 20
45.15097629899174
 30
0.0
  0
VERTEX
  5
891
  8
CK_LEVEL_1
 10
52.86990308704816
 20
45.16576863654882
 30
0.0
  0
VERTEX
  5
892
  8
CK_LEVEL_1
 10
52.85830949127347
 20
45.18013230641918
 30
0.0
  0
VERTEX
  5
893
  8
CK_LEVEL_1
 10
52.84625729877979
 20
45.19405798735215
 30
0.0
  0
VERTEX
  5
894
  8
CK_LEVEL_1
 10
52.83375992883037
 20
45.207536395445
 30
0.0
  0
VERTEX
  5
895
  8
CK_LEVEL_1
 10
52.82083078046907
 20
45.2205582800093
 30
0.0
  0
VERTEX
  5
896
  8
CK_LEVEL_1
 10
52.80748323126244
 20
45.23311441777469
 30
0.0
  0
VERTEX
  5
897
  8
CK_LEVEL_1
 10
52.79373064687724
 20
45.24519559842884
 30
0.0
  0
VERTEX
  5
898
  8
CK_LEVEL_1
 10
52.77958636654074
 20
45.2567926332249
 30
0.0
  0
VERTEX
  5
899
  8
CK_LEVEL_1
 10
52.76506372063221
 20
45.26789633591966
 30
0.0
  0
VERTEX
  5
89A
  8
CK_LEVEL_1
 10
52.75017602429551
 20
45.27849752593079
 30
0.0
  0
VERTEX
  5
89B
  8
CK_LEVEL_1
 10
52.73493659017157
 20
45.28858701747981
 30
0.0
  0
VERTEX
  5
89C
  8
CK_LEVEL_1
 10
52.71935872574903
 20
45.29815562149952
 30
0.0
  0
VERTEX
  5
89D
  8
CK_LEVEL_1
 10
52.68651015841971
 20
45.31682522386535
 30
0.0
  0
VERTEX
  5
89E
  8
CK_LEVEL_1
 10
49.30140913424234
 20
39.47633259680785
 30
0.0
  0
VERTEX
  5
89F
  8
CK_LEVEL_1
 10
49.33391627418877
 20
39.45633670121697
 30
0.0
  0
VERTEX
  5
8A0
  8
CK_LEVEL_1
 10
49.3504603480016
 20
39.44695015365915
 30
0.0
  0
VERTEX
  5
8A1
  8
CK_LEVEL_1
 10
49.36731787178149
 20
39.43815850371698
 30
0.0
  0
VERTEX
  5
8A2
  8
CK_LEVEL_1
 10
49.3844723806971
 20
39.42996949917119
 30
0.0
  0
VERTEX
  5
8A3
  8
CK_LEVEL_1
 10
49.40190741819441
 20
39.42239089134159
 30
0.0
  0
VERTEX
  5
8A4
  8
CK_LEVEL_1
 10
49.41960652487131
 20
39.41543044022183
 30
0.0
  0
VERTEX
  5
8A5
  8
CK_LEVEL_1
 10
49.43755324131843
 20
39.40909591278103
 30
0.0
  0
VERTEX
  5
8A6
  8
CK_LEVEL_1
 10
49.45573108689968
 20
39.40339508929173
 30
0.0
  0
VERTEX
  5
8A7
  8
CK_LEVEL_1
 10
49.47412356583953
 20
39.39833575793182
 30
0.0
  0
VERTEX
  5
8A8
  8
CK_LEVEL_1
 10
49.49271415529091
 20
39.39392571541782
 30
0.0
  0
VERTEX
  5
8A9
  8
CK_LEVEL_1
 10
49.51148629570451
 20
39.39017276493951
 30
0.0
  0
VERTEX
  5
8AA
  8
CK_LEVEL_1
 10
49.53042338490576
 20
39.38708471172737
 30
0.0
  0
VERTEX
  5
8AB
  8
CK_LEVEL_1
 10
49.54950877055506
 20
39.38466935782924
 30
0.0
  0
VERTEX
  5
8AC
  8
CK_LEVEL_1
 10
49.56872575637198
 20
39.38293449467011
 30
0.0
  0
SEQEND
  5
E84
  8
CK_LEVEL_1
  0
POLYLINE
  5
104
  8
CK_LEVEL_1
 66
     1
 10
0.0
 20
0.0
 30
0.0
 70
     1
  0
VERTEX
  5
8AD
  8
CK_LEVEL_1
 10
63.42141285902594
 20
39.38188789822766
 30
0.0
  0
VERTEX
  5
8AE
  8
CK_LEVEL_1
 10
63.40216401419443
 20
39.38154058387146
 30
0.0
  0
VERTEX
  5
8AF
  8
CK_LEVEL_1
 10
61.40100682595246
 20
39.38154058387109
 30
0.0
  0
VERTEX
  5
8B0
  8
CK_LEVEL_1
 10
60.97683843859991
 20
40.11578799245562
 30
0.0
 42
0.2673148700944858
  0
VERTEX
  5
8B1
  8
CK_LEVEL_1
 10
60.77792872199707
 20
40.23032241074262
 30
0.0
  0
VERTEX
  5
8B2
  8
CK_LEVEL_1
 10
57.28283107781598
 20
40.22801667620348
 30
0.0
  0
VERTEX
  5
8B3
  8
CK_LEVEL_1
 10
58.4661585913481
 20
42.27760005163418
 30
0.0
  0
VERTEX
  5
8B4
  8
CK_LEVEL_1
 10
59.32711406632016
 20
42.27032241074262
 30
0.0
 42
0.5778270611202604
  0
VERTEX
  5
8B5
  8
CK_LEVEL_1
 10
59.52600836349774
 20
42.61568027977174
 30
0.0
  0
VERTEX
  5
8B6
  8
CK_LEVEL_1
 10
59.08737935825026
 20
43.35358598262037
 30
0.0
  0
VERTEX
  5
8B7
  8
CK_LEVEL_1
 10
60.09813749356804
 20
45.10427042715401
 30
0.0
  0
VERTEX
  5
8B8
  8
CK_LEVEL_1
 10
60.10767257198641
 20
45.12014313986083
 30
0.0
  0
VERTEX
  5
8B9
  8
CK_LEVEL_1
 10
60.11780970354685
 20
45.13576465953338
 30
0.0
  0
VERTEX
  5
8BA
  8
CK_LEVEL_1
 10
60.12844578376698
 20
45.15097629899174
 30
0.0
  0
VERTEX
  5
8BB
  8
CK_LEVEL_1
 10
60.1395673471337
 20
45.16576863654882
 30
0.0
  0
VERTEX
  5
8BC
  8
CK_LEVEL_1
 10
60.15116094290838
 20
45.18013230641918
 30
0.0
  0
VERTEX
  5
8BD
  8
CK_LEVEL_1
 10
60.16321313540207
 20
45.19405798735215
 30
0.0
  0
VERTEX
  5
8BE
  8
CK_LEVEL_1
 10
60.17571050535148
 20
45.207536395445
 30
0.0
  0
VERTEX
  5
8BF
  8
CK_LEVEL_1
 10
60.18863965371279
 20
45.2205582800093
 30
0.0
  0
VERTEX
  5
8C0
  8
CK_LEVEL_1
 10
60.20198720291942
 20
45.23311441777469
 30
0.0
  0
VERTEX
  5
8C1
  8
CK_LEVEL_1
 10
60.21573978730462
 20
45.24519559842884
 30
0.0
  0
VERTEX
  5
8C2
  8
CK_LEVEL_1
 10
60.22988406764112
 20
45.2567926332249
 30
0.0
  0
VERTEX
  5
8C3
  8
CK_LEVEL_1
 10
60.24440671354964
 20
45.26789633591966
 30
0.0
  0
VERTEX
  5
8C4
  8
CK_LEVEL_1
 10
60.25929440988634
 20
45.27849752593079
 30
0.0
  0
VERTEX
  5
8C5
  8
CK_LEVEL_1
 10
60.27453384401029
 20
45.28858701747981
 30
0.0
  0
VERTEX
  5
8C6
  8
CK_LEVEL_1
 10
60.29011170843282
 20
45.29815562149952
 30
0.0
  0
VERTEX
  5
8C7
  8
CK_LEVEL_1
 10
60.32296027576215
 20
45.31682522386535
 30
0.0
  0
VERTEX
  5
8C8
  8
CK_LEVEL_1
 10
63.70806129993952
 20
39.47633259680785
 30
0.0
  0
VERTEX
  5
8C9
  8
CK_LEVEL_1
 10
63.67555415999309
 20
39.45633670121697
 30
0.0
  0
VERTEX
  5
8CA
  8
CK_LEVEL_1
 10
63.65901008618025
 20
39.44695015365915
 30
0.0
  0
VERTEX
  5
8CB
  8
CK_LEVEL_1
 10
63.64215256240036
 20
39.43815850371698
 30
0.0
  0
VERTEX
  5
8CC
  8
CK_LEVEL_1
 10
63.62499805348475
 20
39.42996949917119
 30
0.0
  0
VERTEX
  5
8CD
  8
CK_LEVEL_1
 10
63.60756301598744
 20
39.42239089134159
 30
0.0
  0
VERTEX
  5
8CE
  8
CK_LEVEL_1
 10
63.58986390931054
 20
39.41543044022183
 30
0.0
  0
VERTEX
  5
8CF
  8
CK_LEVEL_1
 10
63.57191719286343
 20
39.40909591278103
 30
0.0
  0
VERTEX
  5
8D0
  8
CK_LEVEL_1
 10
63.55373934728218
 20
39.40339508929173
 30
0.0
  0
VERTEX
  5
8D1
  8
CK_LEVEL_1
 10
63.53534686834232
 20
39.39833575793182
 30
0.0
  0
VERTEX
  5
8D2
  8
CK_LEVEL_1
 10
63.51675627889094
 20
39.39392571541782
 30
0.0
  0
VERTEX
  5
8D3
  8
CK_LEVEL_1
 10
63.49798413847734
 20
39.39017276493951
 30
0.0
  0
VERTEX
  5
8D4
  8
CK_LEVEL_1
 10
63.4790470492761
 20
39.38708471172737
 30
0.0
  0
VERTEX
  5
8D5
  8
CK_LEVEL_1
 10
63.45996166362679
 20
39.38466935782924
 30
0.0
  0
VERTEX
  5
8D6
  8
CK_LEVEL_1
 10
63.44074467780988
 20
39.38293449467011
 30
0.0
  0
SEQEND
  5
E85
  8
CK_LEVEL_1
  0
POLYLINE
  5
105
  8
CK_LEVEL_1
 66
     1
 10
0.0
 20
0.0
 30
0.0
 70
     1
  0
VERTEX
  5
8D7
  8
CK_LEVEL_1
 10
63.42141285902594
 20
32.64082206750663
 30
0.0
  0
VERTEX
  5
8D8
  8
CK_LEVEL_1
 10
63.40216401419443
 20
32.64047475315043
 30
0.0
  0
VERTEX
  5
8D9
  8
CK_LEVEL_1
 10
61.40100682595246
 20
32.64047475315006
 30
0.0
  0
VERTEX
  5
8DA
  8
CK_LEVEL_1
 10
60.97683843859991
 20
33.3747221617346
 30
0.0
 42
0.2673148700944858
  0
VERTEX
  5
8DB
  8
CK_LEVEL_1
 10
60.77792872199707
 20
33.48925658002159
 30
0.0
  0
VERTEX
  5
8DC
  8
CK_LEVEL_1
 10
57.28283107781598
 20
33.48695084548245
 30
0.0
  0
VERTEX
  5
8DD
  8
CK_LEVEL_1
 10
58.4661585913481
 20
35.53653422091315
 30
0.0
  0
VERTEX
  5
8DE
  8
CK_LEVEL_1
 10
59.32711406632016
 20
35.5292565800216
 30
0.0
 42
0.5778270611202604
  0
VERTEX
  5
8DF
  8
CK_LEVEL_1
 10
59.52600836349774
 20
35.87461444905071
 30
0.0
  0
VERTEX
  5
8E0
  8
CK_LEVEL_1
 10
59.08737935825026
 20
36.61252015189935
 30
0.0
  0
VERTEX
  5
8E1
  8
CK_LEVEL_1
 10
60.09813749356804
 20
38.36320459643298
 30
0.0
  0
VERTEX
  5
8E2
  8
CK_LEVEL_1
 10
60.10767257198641
 20
38.3790773091398
 30
0.0
  0
VERTEX
  5
8E3
  8
CK_LEVEL_1
 10
60.11780970354685
 20
38.39469882881235
 30
0.0
  0
VERTEX
  5
8E4
  8
CK_LEVEL_1
 10
60.12844578376698
 20
38.40991046827071
 30
0.0
  0
VERTEX
  5
8E5
  8
CK_LEVEL_1
 10
60.1395673471337
 20
38.42470280582779
 30
0.0
  0
VERTEX
  5
8E6
  8
CK_LEVEL_1
 10
60.15116094290838
 20
38.43906647569816
 30
0.0
  0
VERTEX
  5
8E7
  8
CK_LEVEL_1
 10
60.16321313540207
 20
38.45299215663113
 30
0.0
  0
VERTEX
  5
8E8
  8
CK_LEVEL_1
 10
60.17571050535148
 20
38.46647056472398
 30
0.0
  0
VERTEX
  5
8E9
  8
CK_LEVEL_1
 10
60.18863965371279
 20
38.47949244928827
 30
0.0
  0
VERTEX
  5
8EA
  8
CK_LEVEL_1
 10
60.20198720291942
 20
38.49204858705366
 30
0.0
  0
VERTEX
  5
8EB
  8
CK_LEVEL_1
 10
60.21573978730462
 20
38.50412976770781
 30
0.0
  0
VERTEX
  5
8EC
  8
CK_LEVEL_1
 10
60.22988406764112
 20
38.51572680250388
 30
0.0
  0
VERTEX
  5
8ED
  8
CK_LEVEL_1
 10
60.24440671354964
 20
38.52683050519863
 30
0.0
  0
VERTEX
  5
8EE
  8
CK_LEVEL_1
 10
60.25929440988634
 20
38.53743169520976
 30
0.0
  0
VERTEX
  5
8EF
  8
CK_LEVEL_1
 10
60.27453384401029
 20
38.54752118675879
 30
0.0
  0
VERTEX
  5
8F0
  8
CK_LEVEL_1
 10
60.29011170843282
 20
38.55708979077849
 30
0.0
  0
VERTEX
  5
8F1
  8
CK_LEVEL_1
 10
60.32296027576215
 20
38.57575939314432
 30
0.0
  0
VERTEX
  5
8F2
  8
CK_LEVEL_1
 10
63.70806129993952
 20
32.73526676608682
 30
0.0
  0
VERTEX
  5
8F3
  8
CK_LEVEL_1
 10
63.67555415999309
 20
32.71527087049594
 30
0.0
  0
VERTEX
  5
8F4
  8
CK_LEVEL_1
 10
63.65901008618025
 20
32.70588432293812
 30
0.0
  0
VERTEX
  5
8F5
  8
CK_LEVEL_1
 10
63.64215256240036
 20
32.69709267299595
 30
0.0
  0
VERTEX
  5
8F6
  8
CK_LEVEL_1
 10
63.62499805348475
 20
32.68890366845017
 30
0.0
  0
VERTEX
  5
8F7
  8
CK_LEVEL_1
 10
63.60756301598744
 20
32.68132506062057
 30
0.0
  0
VERTEX
  5
8F8
  8
CK_LEVEL_1
 10
63.58986390931054
 20
32.6743646095008
 30
0.0
  0
VERTEX
  5
8F9
  8
CK_LEVEL_1
 10
63.57191719286343
 20
32.66803008206
 30
0.0
  0
VERTEX
  5
8FA
  8
CK_LEVEL_1
 10
63.55373934728218
 20
32.66232925857071
 30
0.0
  0
VERTEX
  5
8FB
  8
CK_LEVEL_1
 10
63.53534686834232
 20
32.65726992721079
 30
0.0
  0
VERTEX
  5
8FC
  8
CK_LEVEL_1
 10
63.51675627889094
 20
32.6528598846968
 30
0.0
  0
VERTEX
  5
8FD
  8
CK_LEVEL_1
 10
63.49798413847734
 20
32.64910693421848
 30
0.0
  0
VERTEX
  5
8FE
  8
CK_LEVEL_1
 10
63.4790470492761
 20
32.64601888100634
 30
0.0
  0
VERTEX
  5
8FF
  8
CK_LEVEL_1
 10
63.45996166362679
 20
32.64360352710821
 30
0.0
  0
VERTEX
  5
900
  8
CK_LEVEL_1
 10
63.44074467780988
 20
32.64186866394908
 30
0.0
  0
SEQEND
  5
E86
  8
CK_LEVEL_1
  0
POLYLINE
  5
106
  8
CK_LEVEL_1
 66
     1
 10
0.0
 20
0.0
 30
0.0
 70
     1
  0
VERTEX
  5
901
  8
CK_LEVEL_1
 10
49.58805757515591
 20
32.64082206750663
 30
0.0
  0
VERTEX
  5
902
  8
CK_LEVEL_1
 10
49.60730641998742
 20
32.64047475315043
 30
0.0
  0
VERTEX
  5
903
  8
CK_LEVEL_1
 10
51.60846360822939
 20
32.64047475315006
 30
0.0
  0
VERTEX
  5
904
  8
CK_LEVEL_1
 10
52.03263199558195
 20
33.3747221617346
 30
0.0
 42
-0.2673148700944858
  0
VERTEX
  5
905
  8
CK_LEVEL_1
 10
52.23154171218479
 20
33.48925658002159
 30
0.0
  0
VERTEX
  5
906
  8
CK_LEVEL_1
 10
55.72663935636587
 20
33.48695084548245
 30
0.0
  0
VERTEX
  5
907
  8
CK_LEVEL_1
 10
54.54331184283375
 20
35.53653422091315
 30
0.0
  0
VERTEX
  5
908
  8
CK_LEVEL_1
 10
53.6823563678617
 20
35.5292565800216
 30
0.0
 42
-0.5778270611202604
  0
VERTEX
  5
909
  8
CK_LEVEL_1
 10
53.48346207068411
 20
35.87461444905071
 30
0.0
  0
VERTEX
  5
90A
  8
CK_LEVEL_1
 10
53.9220910759316
 20
36.61252015189935
 30
0.0
  0
VERTEX
  5
90B
  8
CK_LEVEL_1
 10
52.91133294061382
 20
38.36320459643298
 30
0.0
  0
VERTEX
  5
90C
  8
CK_LEVEL_1
 10
52.90179786219545
 20
38.3790773091398
 30
0.0
  0
VERTEX
  5
90D
  8
CK_LEVEL_1
 10
52.89166073063501
 20
38.39469882881235
 30
0.0
  0
VERTEX
  5
90E
  8
CK_LEVEL_1
 10
52.88102465041487
 20
38.40991046827071
 30
0.0
  0
VERTEX
  5
90F
  8
CK_LEVEL_1
 10
52.86990308704816
 20
38.42470280582779
 30
0.0
  0
VERTEX
  5
910
  8
CK_LEVEL_1
 10
52.85830949127347
 20
38.43906647569816
 30
0.0
  0
VERTEX
  5
911
  8
CK_LEVEL_1
 10
52.84625729877979
 20
38.45299215663113
 30
0.0
  0
VERTEX
  5
912
  8
CK_LEVEL_1
 10
52.83375992883037
 20
38.46647056472398
 30
0.0
  0
VERTEX
  5
913
  8
CK_LEVEL_1
 10
52.82083078046907
 20
38.47949244928827
 30
0.0
  0
VERTEX
  5
914
  8
CK_LEVEL_1
 10
52.80748323126244
 20
38.49204858705366
 30
0.0
  0
VERTEX
  5
915
  8
CK_LEVEL_1
 10
52.79373064687724
 20
38.50412976770781
 30
0.0
  0
VERTEX
  5
916
  8
CK_LEVEL_1
 10
52.77958636654074
 20
38.51572680250388
 30
0.0
  0
VERTEX
  5
917
  8
CK_LEVEL_1
 10
52.76506372063221
 20
38.52683050519863
 30
0.0
  0
VERTEX
  5
918
  8
CK_LEVEL_1
 10
52.75017602429551
 20
38.53743169520976
 30
0.0
  0
VERTEX
  5
919
  8
CK_LEVEL_1
 10
52.73493659017157
 20
38.54752118675879
 30
0.0
  0
VERTEX
  5
91A
  8
CK_LEVEL_1
 10
52.71935872574903
 20
38.55708979077849
 30
0.0
  0
VERTEX
  5
91B
  8
CK_LEVEL_1
 10
52.68651015841971
 20
38.57575939314432
 30
0.0
  0
VERTEX
  5
91C
  8
CK_LEVEL_1
 10
49.30140913424234
 20
32.73526676608682
 30
0.0
  0
VERTEX
  5
91D
  8
CK_LEVEL_1
 10
49.33391627418877
 20
32.71527087049594
 30
0.0
  0
VERTEX
  5
91E
  8
CK_LEVEL_1
 10
49.3504603480016
 20
32.70588432293812
 30
0.0
  0
VERTEX
  5
91F
  8
CK_LEVEL_1
 10
49.36731787178149
 20
32.69709267299595
 30
0.0
  0
VERTEX
  5
920
  8
CK_LEVEL_1
 10
49.3844723806971
 20
32.68890366845017
 30
0.0
  0
VERTEX
  5
921
  8
CK_LEVEL_1
 10
49.40190741819441
 20
32.68132506062057
 30
0.0
  0
VERTEX
  5
922
  8
CK_LEVEL_1
 10
49.41960652487131
 20
32.6743646095008
 30
0.0
  0
VERTEX
  5
923
  8
CK_LEVEL_1
 10
49.43755324131843
 20
32.66803008206
 30
0.0
  0
VERTEX
  5
924
  8
CK_LEVEL_1
 10
49.45573108689968
 20
32.66232925857071
 30
0.0
  0
VERTEX
  5
925
  8
CK_LEVEL_1
 10
49.47412356583953
 20
32.65726992721079
 30
0.0
  0
VERTEX
  5
926
  8
CK_LEVEL_1
 10
49.49271415529091
 20
32.6528598846968
 30
0.0
  0
VERTEX
  5
927
  8
CK_LEVEL_1
 10
49.51148629570451
 20
32.64910693421848
 30
0.0
  0
VERTEX
  5
928
  8
CK_LEVEL_1
 10
49.53042338490576
 20
32.64601888100634
 30
0.0
  0
VERTEX
  5
929
  8
CK_LEVEL_1
 10
49.54950877055506
 20
32.64360352710821
 30
0.0
  0
VERTEX
  5
92A
  8
CK_LEVEL_1
 10
49.56872575637198
 20
32.64186866394908
 30
0.0
  0
SEQEND
  5
E87
  8
CK_LEVEL_1
  0
POLYLINE
  5
107
  8
CK_LEVEL_1
 66
     1
 10
0.0
 20
0.0
 30
0.0
 70
     1
  0
VERTEX
  5
92B
  8
CK_LEVEL_1
 10
49.58805757515591
 20
25.56270294524955
 30
0.0
  0
VERTEX
  5
92C
  8
CK_LEVEL_1
 10
49.60730641998742
 20
25.56235563089335
 30
0.0
  0
VERTEX
  5
92D
  8
CK_LEVEL_1
 10
51.60846360822939
 20
25.56235563089298
 30
0.0
  0
VERTEX
  5
92E
  8
CK_LEVEL_1
 10
52.03263199558195
 20
26.29660303947752
 30
0.0
 42
-0.2673148700944858
  0
VERTEX
  5
92F
  8
CK_LEVEL_1
 10
52.23154171218479
 20
26.41113745776451
 30
0.0
  0
VERTEX
  5
930
  8
CK_LEVEL_1
 10
55.72663935636587
 20
26.40883172322538
 30
0.0
  0
VERTEX
  5
931
  8
CK_LEVEL_1
 10
54.54331184283375
 20
28.45841509865608
 30
0.0
  0
VERTEX
  5
932
  8
CK_LEVEL_1
 10
53.6823563678617
 20
28.45113745776452
 30
0.0
 42
-0.5778270611202604
  0
VERTEX
  5
933
  8
CK_LEVEL_1
 10
53.48346207068411
 20
28.79649532679363
 30
0.0
  0
VERTEX
  5
934
  8
CK_LEVEL_1
 10
53.9220910759316
 20
29.53440102964227
 30
0.0
  0
VERTEX
  5
935
  8
CK_LEVEL_1
 10
52.91133294061382
 20
31.2850854741759
 30
0.0
  0
VERTEX
  5
936
  8
CK_LEVEL_1
 10
52.90179786219545
 20
31.30095818688272
 30
0.0
  0
VERTEX
  5
937
  8
CK_LEVEL_1
 10
52.89166073063501
 20
31.31657970655527
 30
0.0
  0
VERTEX
  5
938
  8
CK_LEVEL_1
 10
52.88102465041487
 20
31.33179134601363
 30
0.0
  0
VERTEX
  5
939
  8
CK_LEVEL_1
 10
52.86990308704816
 20
31.34658368357071
 30
0.0
  0
VERTEX
  5
93A
  8
CK_LEVEL_1
 10
52.85830949127347
 20
31.36094735344108
 30
0.0
  0
VERTEX
  5
93B
  8
CK_LEVEL_1
 10
52.84625729877979
 20
31.37487303437405
 30
0.0
  0
VERTEX
  5
93C
  8
CK_LEVEL_1
 10
52.83375992883037
 20
31.3883514424669
 30
0.0
  0
VERTEX
  5
93D
  8
CK_LEVEL_1
 10
52.82083078046907
 20
31.40137332703119
 30
0.0
  0
VERTEX
  5
93E
  8
CK_LEVEL_1
 10
52.80748323126244
 20
31.41392946479658
 30
0.0
  0
VERTEX
  5
93F
  8
CK_LEVEL_1
 10
52.79373064687724
 20
31.42601064545073
 30
0.0
  0
VERTEX
  5
940
  8
CK_LEVEL_1
 10
52.77958636654074
 20
31.4376076802468
 30
0.0
  0
VERTEX
  5
941
  8
CK_LEVEL_1
 10
52.76506372063221
 20
31.44871138294155
 30
0.0
  0
VERTEX
  5
942
  8
CK_LEVEL_1
 10
52.75017602429551
 20
31.45931257295268
 30
0.0
  0
VERTEX
  5
943
  8
CK_LEVEL_1
 10
52.73493659017157
 20
31.46940206450171
 30
0.0
  0
VERTEX
  5
944
  8
CK_LEVEL_1
 10
52.71935872574903
 20
31.47897066852141
 30
0.0
  0
VERTEX
  5
945
  8
CK_LEVEL_1
 10
52.68651015841971
 20
31.49764027088725
 30
0.0
  0
VERTEX
  5
946
  8
CK_LEVEL_1
 10
49.30140913424234
 20
25.65714764382975
 30
0.0
  0
VERTEX
  5
947
  8
CK_LEVEL_1
 10
49.33391627418877
 20
25.63715174823886
 30
0.0
  0
VERTEX
  5
948
  8
CK_LEVEL_1
 10
49.3504603480016
 20
25.62776520068104
 30
0.0
  0
VERTEX
  5
949
  8
CK_LEVEL_1
 10
49.36731787178149
 20
25.61897355073887
 30
0.0
  0
VERTEX
  5
94A
  8
CK_LEVEL_1
 10
49.3844723806971
 20
25.61078454619309
 30
0.0
  0
VERTEX
  5
94B
  8
CK_LEVEL_1
 10
49.40190741819441
 20
25.60320593836349
 30
0.0
  0
VERTEX
  5
94C
  8
CK_LEVEL_1
 10
49.41960652487131
 20
25.59624548724372
 30
0.0
  0
VERTEX
  5
94D
  8
CK_LEVEL_1
 10
49.43755324131843
 20
25.58991095980292
 30
0.0
  0
VERTEX
  5
94E
  8
CK_LEVEL_1
 10
49.45573108689968
 20
25.58421013631363
 30
0.0
  0
VERTEX
  5
94F
  8
CK_LEVEL_1
 10
49.47412356583953
 20
25.57915080495371
 30
0.0
  0
VERTEX
  5
950
  8
CK_LEVEL_1
 10
49.49271415529091
 20
25.57474076243972
 30
0.0
  0
VERTEX
  5
951
  8
CK_LEVEL_1
 10
49.51148629570451
 20
25.5709878119614
 30
0.0
  0
VERTEX
  5
952
  8
CK_LEVEL_1
 10
49.53042338490576
 20
25.56789975874926
 30
0.0
  0
VERTEX
  5
953
  8
CK_LEVEL_1
 10
49.54950877055506
 20
25.56548440485113
 30
0.0
  0
VERTEX
  5
954
  8
CK_LEVEL_1
 10
49.56872575637198
 20
25.563749541692
 30
0.0
  0
SEQEND
  5
E88
  8
CK_LEVEL_1
  0
POLYLINE
  5
108
  8
CK_LEVEL_1
 66
     1
 10
0.0
 20
0.0
 30
0.0
 70
     1
  0
VERTEX
  5
955
  8
CK_LEVEL_1
 10
63.42141285902594
 20
25.56270294524955
 30
0.0
  0
VERTEX
  5
956
  8
CK_LEVEL_1
 10
63.40216401419443
 20
25.56235563089335
 30
0.0
  0
VERTEX
  5
957
  8
CK_LEVEL_1
 10
61.40100682595246
 20
25.56235563089298
 30
0.0
  0
VERTEX
  5
958
  8
CK_LEVEL_1
 10
60.97683843859991
 20
26.29660303947752
 30
0.0
 42
0.2673148700944858
  0
VERTEX
  5
959
  8
CK_LEVEL_1
 10
60.77792872199707
 20
26.41113745776451
 30
0.0
  0
VERTEX
  5
95A
  8
CK_LEVEL_1
 10
57.28283107781598
 20
26.40883172322538
 30
0.0
  0
VERTEX
  5
95B
  8
CK_LEVEL_1
 10
58.4661585913481
 20
28.45841509865608
 30
0.0
  0
VERTEX
  5
95C
  8
CK_LEVEL_1
 10
59.32711406632016
 20
28.45113745776452
 30
0.0
 42
0.5778270611202604
  0
VERTEX
  5
95D
  8
CK_LEVEL_1
 10
59.52600836349774
 20
28.79649532679363
 30
0.0
  0
VERTEX
  5
95E
  8
CK_LEVEL_1
 10
59.08737935825026
 20
29.53440102964227
 30
0.0
  0
VERTEX
  5
95F
  8
CK_LEVEL_1
 10
60.09813749356804
 20
31.2850854741759
 30
0.0
  0
VERTEX
  5
960
  8
CK_LEVEL_1
 10
60.10767257198641
 20
31.30095818688272
 30
0.0
  0
VERTEX
  5
961
  8
CK_LEVEL_1
 10
60.11780970354685
 20
31.31657970655527
 30
0.0
  0
VERTEX
  5
962
  8
CK_LEVEL_1
 10
60.12844578376698
 20
31.33179134601363
 30
0.0
  0
VERTEX
  5
963
  8
CK_LEVEL_1
 10
60.1395673471337
 20
31.34658368357071
 30
0.0
  0
VERTEX
  5
964
  8
CK_LEVEL_1
 10
60.15116094290838
 20
31.36094735344108
 30
0.0
  0
VERTEX
  5
965
  8
CK_LEVEL_1
 10
60.16321313540207
 20
31.37487303437405
 30
0.0
  0
VERTEX
  5
966
  8
CK_LEVEL_1
 10
60.17571050535148
 20
31.3883514424669
 30
0.0
  0
VERTEX
  5
967
  8
CK_LEVEL_1
 10
60.18863965371279
 20
31.40137332703119
 30
0.0
  0
VERTEX
  5
968
  8
CK_LEVEL_1
 10
60.20198720291942
 20
31.41392946479658
 30
0.0
  0
VERTEX
  5
969
  8
CK_LEVEL_1
 10
60.21573978730462
 20
31.42601064545073
 30
0.0
  0
VERTEX
  5
96A
  8
CK_LEVEL_1
 10
60.22988406764112
 20
31.4376076802468
 30
0.0
  0
VERTEX
  5
96B
  8
CK_LEVEL_1
 10
60.24440671354964
 20
31.44871138294155
 30
0.0
  0
VERTEX
  5
96C
  8
CK_LEVEL_1
 10
60.25929440988634
 20
31.45931257295268
 30
0.0
  0
VERTEX
  5
96D
  8
CK_LEVEL_1
 10
60.27453384401029
 20
31.46940206450171
 30
0.0
  0
VERTEX
  5
96E
  8
CK_LEVEL_1
 10
60.29011170843282
 20
31.47897066852141
 30
0.0
  0
VERTEX
  5
96F
  8
CK_LEVEL_1
 10
60.32296027576215
 20
31.49764027088725
 30
0.0
  0
VERTEX
  5
970
  8
CK_LEVEL_1
 10
63.70806129993952
 20
25.65714764382975
 30
0.0
  0
VERTEX
  5
971
  8
CK_LEVEL_1
 10
63.67555415999309
 20
25.63715174823886
 30
0.0
  0
VERTEX
  5
972
  8
CK_LEVEL_1
 10
63.65901008618025
 20
25.62776520068104
 30
0.0
  0
VERTEX
  5
973
  8
CK_LEVEL_1
 10
63.64215256240036
 20
25.61897355073887
 30
0.0
  0
VERTEX
  5
974
  8
CK_LEVEL_1
 10
63.62499805348475
 20
25.61078454619309
 30
0.0
  0
VERTEX
  5
975
  8
CK_LEVEL_1
 10
63.60756301598744
 20
25.60320593836349
 30
0.0
  0
VERTEX
  5
976
  8
CK_LEVEL_1
 10
63.58986390931054
 20
25.59624548724372
 30
0.0
  0
VERTEX
  5
977
  8
CK_LEVEL_1
 10
63.57191719286343
 20
25.58991095980292
 30
0.0
  0
VERTEX
  5
978
  8
CK_LEVEL_1
 10
63.55373934728218
 20
25.58421013631363
 30
0.0
  0
VERTEX
  5
979
  8
CK_LEVEL_1
 10
63.53534686834232
 20
25.57915080495371
 30
0.0
  0
VERTEX
  5
97A
  8
CK_LEVEL_1
 10
63.51675627889094
 20
25.57474076243972
 30
0.0
  0
VERTEX
  5
97B
  8
CK_LEVEL_1
 10
63.49798413847734
 20
25.5709878119614
 30
0.0
  0
VERTEX
  5
97C
  8
CK_LEVEL_1
 10
63.4790470492761
 20
25.56789975874926
 30
0.0
  0
VERTEX
  5
97D
  8
CK_LEVEL_1
 10
63.45996166362679
 20
25.56548440485113
 30
0.0
  0
VERTEX
  5
97E
  8
CK_LEVEL_1
 10
63.44074467780988
 20
25.563749541692
 30
0.0
  0
SEQEND
  5
E89
  8
CK_LEVEL_1
  0
POLYLINE
  5
109
  8
CK_LEVEL_1
 66
     1
 10
0.0
 20
0.0
 30
0.0
 70
     1
  0
VERTEX
  5
97F
  8
CK_LEVEL_1
 10
49.58805757515591
 20
18.48458382299248
 30
0.0
  0
VERTEX
  5
980
  8
CK_LEVEL_1
 10
49.60730641998742
 20
18.48423650863627
 30
0.0
  0
VERTEX
  5
981
  8
CK_LEVEL_1
 10
51.60846360822939
 20
18.4842365086359
 30
0.0
  0
VERTEX
  5
982
  8
CK_LEVEL_1
 10
52.03263199558195
 20
19.21848391722044
 30
0.0
 42
-0.2673148700944858
  0
VERTEX
  5
983
  8
CK_LEVEL_1
 10
52.23154171218479
 20
19.33301833550743
 30
0.0
  0
VERTEX
  5
984
  8
CK_LEVEL_1
 10
55.72663935636587
 20
19.3307126009683
 30
0.0
  0
VERTEX
  5
985
  8
CK_LEVEL_1
 10
54.54331184283375
 20
21.380295976399
 30
0.0
  0
VERTEX
  5
986
  8
CK_LEVEL_1
 10
53.6823563678617
 20
21.37301833550744
 30
0.0
 42
-0.5778270611202604
  0
VERTEX
  5
987
  8
CK_LEVEL_1
 10
53.48346207068411
 20
21.71837620453655
 30
0.0
  0
VERTEX
  5
988
  8
CK_LEVEL_1
 10
53.9220910759316
 20
22.45628190738519
 30
0.0
  0
VERTEX
  5
989
  8
CK_LEVEL_1
 10
52.91133294061382
 20
24.20696635191882
 30
0.0
  0
VERTEX
  5
98A
  8
CK_LEVEL_1
 10
52.90179786219545
 20
24.22283906462565
 30
0.0
  0
VERTEX
  5
98B
  8
CK_LEVEL_1
 10
52.89166073063501
 20
24.2384605842982
 30
0.0
  0
VERTEX
  5
98C
  8
CK_LEVEL_1
 10
52.88102465041487
 20
24.25367222375655
 30
0.0
  0
VERTEX
  5
98D
  8
CK_LEVEL_1
 10
52.86990308704816
 20
24.26846456131364
 30
0.0
  0
VERTEX
  5
98E
  8
CK_LEVEL_1
 10
52.85830949127347
 20
24.282828231184
 30
0.0
  0
VERTEX
  5
98F
  8
CK_LEVEL_1
 10
52.84625729877979
 20
24.29675391211697
 30
0.0
  0
VERTEX
  5
990
  8
CK_LEVEL_1
 10
52.83375992883037
 20
24.31023232020982
 30
0.0
  0
VERTEX
  5
991
  8
CK_LEVEL_1
 10
52.82083078046907
 20
24.32325420477412
 30
0.0
  0
VERTEX
  5
992
  8
CK_LEVEL_1
 10
52.80748323126244
 20
24.3358103425395
 30
0.0
  0
VERTEX
  5
993
  8
CK_LEVEL_1
 10
52.79373064687724
 20
24.34789152319365
 30
0.0
  0
VERTEX
  5
994
  8
CK_LEVEL_1
 10
52.77958636654074
 20
24.35948855798972
 30
0.0
  0
VERTEX
  5
995
  8
CK_LEVEL_1
 10
52.76506372063221
 20
24.37059226068448
 30
0.0
  0
VERTEX
  5
996
  8
CK_LEVEL_1
 10
52.75017602429551
 20
24.3811934506956
 30
0.0
  0
VERTEX
  5
997
  8
CK_LEVEL_1
 10
52.73493659017157
 20
24.39128294224463
 30
0.0
  0
VERTEX
  5
998
  8
CK_LEVEL_1
 10
52.71935872574903
 20
24.40085154626433
 30
0.0
  0
VERTEX
  5
999
  8
CK_LEVEL_1
 10
52.68651015841971
 20
24.41952114863017
 30
0.0
  0
VERTEX
  5
99A
  8
CK_LEVEL_1
 10
49.30140913424234
 20
18.57902852157267
 30
0.0
  0
VERTEX
  5
99B
  8
CK_LEVEL_1
 10
49.33391627418877
 20
18.55903262598179
 30
0.0
  0
VERTEX
  5
99C
  8
CK_LEVEL_1
 10
49.3504603480016
 20
18.54964607842396
 30
0.0
  0
VERTEX
  5
99D
  8
CK_LEVEL_1
 10
49.36731787178149
 20
18.54085442848179
 30
0.0
  0
VERTEX
  5
99E
  8
CK_LEVEL_1
 10
49.3844723806971
 20
18.53266542393601
 30
0.0
  0
VERTEX
  5
99F
  8
CK_LEVEL_1
 10
49.40190741819441
 20
18.52508681610641
 30
0.0
  0
VERTEX
  5
9A0
  8
CK_LEVEL_1
 10
49.41960652487131
 20
18.51812636498664
 30
0.0
  0
VERTEX
  5
9A1
  8
CK_LEVEL_1
 10
49.43755324131843
 20
18.51179183754584
 30
0.0
  0
VERTEX
  5
9A2
  8
CK_LEVEL_1
 10
49.45573108689968
 20
18.50609101405655
 30
0.0
  0
VERTEX
  5
9A3
  8
CK_LEVEL_1
 10
49.47412356583953
 20
18.50103168269663
 30
0.0
  0
VERTEX
  5
9A4
  8
CK_LEVEL_1
 10
49.49271415529091
 20
18.49662164018264
 30
0.0
  0
VERTEX
  5
9A5
  8
CK_LEVEL_1
 10
49.51148629570451
 20
18.49286868970432
 30
0.0
  0
VERTEX
  5
9A6
  8
CK_LEVEL_1
 10
49.53042338490576
 20
18.48978063649218
 30
0.0
  0
VERTEX
  5
9A7
  8
CK_LEVEL_1
 10
49.54950877055506
 20
18.48736528259406
 30
0.0
  0
VERTEX
  5
9A8
  8
CK_LEVEL_1
 10
49.56872575637198
 20
18.48563041943493
 30
0.0
  0
SEQEND
  5
E8A
  8
CK_LEVEL_1
  0
POLYLINE
  5
10A
  8
CK_LEVEL_1
 66
     1
 10
0.0
 20
0.0
 30
0.0
 70
     1
  0
VERTEX
  5
9A9
  8
CK_LEVEL_1
 10
63.42141285902594
 20
18.48458382299248
 30
0.0
  0
VERTEX
  5
9AA
  8
CK_LEVEL_1
 10
63.40216401419443
 20
18.48423650863627
 30
0.0
  0
VERTEX
  5
9AB
  8
CK_LEVEL_1
 10
61.40100682595246
 20
18.4842365086359
 30
0.0
  0
VERTEX
  5
9AC
  8
CK_LEVEL_1
 10
60.97683843859991
 20
19.21848391722044
 30
0.0
 42
0.2673148700944858
  0
VERTEX
  5
9AD
  8
CK_LEVEL_1
 10
60.77792872199707
 20
19.33301833550743
 30
0.0
  0
VERTEX
  5
9AE
  8
CK_LEVEL_1
 10
57.28283107781598
 20
19.3307126009683
 30
0.0
  0
VERTEX
  5
9AF
  8
CK_LEVEL_1
 10
58.4661585913481
 20
21.380295976399
 30
0.0
  0
VERTEX
  5
9B0
  8
CK_LEVEL_1
 10
59.32711406632016
 20
21.37301833550744
 30
0.0
 42
0.5778270611202604
  0
VERTEX
  5
9B1
  8
CK_LEVEL_1
 10
59.52600836349774
 20
21.71837620453655
 30
0.0
  0
VERTEX
  5
9B2
  8
CK_LEVEL_1
 10
59.08737935825026
 20
22.45628190738519
 30
0.0
  0
VERTEX
  5
9B3
  8
CK_LEVEL_1
 10
60.09813749356804
 20
24.20696635191882
 30
0.0
  0
VERTEX
  5
9B4
  8
CK_LEVEL_1
 10
60.10767257198641
 20
24.22283906462565
 30
0.0
  0
VERTEX
  5
9B5
  8
CK_LEVEL_1
 10
60.11780970354685
 20
24.2384605842982
 30
0.0
  0
VERTEX
  5
9B6
  8
CK_LEVEL_1
 10
60.12844578376698
 20
24.25367222375655
 30
0.0
  0
VERTEX
  5
9B7
  8
CK_LEVEL_1
 10
60.1395673471337
 20
24.26846456131364
 30
0.0
  0
VERTEX
  5
9B8
  8
CK_LEVEL_1
 10
60.15116094290838
 20
24.282828231184
 30
0.0
  0
VERTEX
  5
9B9
  8
CK_LEVEL_1
 10
60.16321313540207
 20
24.29675391211697
 30
0.0
  0
VERTEX
  5
9BA
  8
CK_LEVEL_1
 10
60.17571050535148
 20
24.31023232020982
 30
0.0
  0
VERTEX
  5
9BB
  8
CK_LEVEL_1
 10
60.18863965371279
 20
24.32325420477412
 30
0.0
  0
VERTEX
  5
9BC
  8
CK_LEVEL_1
 10
60.20198720291942
 20
24.3358103425395
 30
0.0
  0
VERTEX
  5
9BD
  8
CK_LEVEL_1
 10
60.21573978730462
 20
24.34789152319365
 30
0.0
  0
VERTEX
  5
9BE
  8
CK_LEVEL_1
 10
60.22988406764112
 20
24.35948855798972
 30
0.0
  0
VERTEX
  5
9BF
  8
CK_LEVEL_1
 10
60.24440671354964
 20
24.37059226068448
 30
0.0
  0
VERTEX
  5
9C0
  8
CK_LEVEL_1
 10
60.25929440988634
 20
24.3811934506956
 30
0.0
  0
VERTEX
  5
9C1
  8
CK_LEVEL_1
 10
60.27453384401029
 20
24.39128294224463
 30
0.0
  0
VERTEX
  5
9C2
  8
CK_LEVEL_1
 10
60.29011170843282
 20
24.40085154626433
 30
0.0
  0
VERTEX
  5
9C3
  8
CK_LEVEL_1
 10
60.32296027576215
 20
24.41952114863017
 30
0.0
  0
VERTEX
  5
9C4
  8
CK_LEVEL_1
 10
63.70806129993952
 20
18.57902852157267
 30
0.0
  0
VERTEX
  5
9C5
  8
CK_LEVEL_1
 10
63.67555415999309
 20
18.55903262598179
 30
0.0
  0
VERTEX
  5
9C6
  8
CK_LEVEL_1
 10
63.65901008618025
 20
18.54964607842396
 30
0.0
  0
VERTEX
  5
9C7
  8
CK_LEVEL_1
 10
63.64215256240036
 20
18.54085442848179
 30
0.0
  0
VERTEX
  5
9C8
  8
CK_LEVEL_1
 10
63.62499805348475
 20
18.53266542393601
 30
0.0
  0
VERTEX
  5
9C9
  8
CK_LEVEL_1
 10
63.60756301598744
 20
18.52508681610641
 30
0.0
  0
VERTEX
  5
9CA
  8
CK_LEVEL_1
 10
63.58986390931054
 20
18.51812636498664
 30
0.0
  0
VERTEX
  5
9CB
  8
CK_LEVEL_1
 10
63.57191719286343
 20
18.51179183754584
 30
0.0
  0
VERTEX
  5
9CC
  8
CK_LEVEL_1
 10
63.55373934728218
 20
18.50609101405655
 30
0.0
  0
VERTEX
  5
9CD
  8
CK_LEVEL_1
 10
63.53534686834232
 20
18.50103168269663
 30
0.0
  0
VERTEX
  5
9CE
  8
CK_LEVEL_1
 10
63.51675627889094
 20
18.49662164018264
 30
0.0
  0
VERTEX
  5
9CF
  8
CK_LEVEL_1
 10
63.49798413847734
 20
18.49286868970432
 30
0.0
  0
VERTEX
  5
9D0
  8
CK_LEVEL_1
 10
63.4790470492761
 20
18.48978063649218
 30
0.0
  0
VERTEX
  5
9D1
  8
CK_LEVEL_1
 10
63.45996166362679
 20
18.48736528259406
 30
0.0
  0
VERTEX
  5
9D2
  8
CK_LEVEL_1
 10
63.44074467780988
 20
18.48563041943493
 30
0.0
  0
SEQEND
  5
E8B
  8
CK_LEVEL_1
  0
POLYLINE
  5
10B
  8
CK_LEVEL_1
 66
     1
 10
0.0
 20
0.0
 30
0.0
 70
     1
  0
VERTEX
  5
9D3
  8
CK_LEVEL_1
 10
61.61804690240027
 20
14.43957948641776
 30
0.0
 42
0.267345803135439
  0
VERTEX
  5
9D4
  8
CK_LEVEL_1
 10
61.38452468573055
 20
14.30510577287785
 30
0.0
  0
VERTEX
  5
9D5
  8
CK_LEVEL_1
 10
58.45579321606641
 20
9.258676163610328
 30
0.0
  0
VERTEX
  5
9D6
  8
CK_LEVEL_1
 10
66.49237570634504
 20
9.258676163609739
 30
0.0
  0
VERTEX
  5
9D7
  8
CK_LEVEL_1
 10
63.56364423668055
 20
14.30510577287786
 30
0.0
 42
0.2673458031358555
  0
VERTEX
  5
9D8
  8
CK_LEVEL_1
 10
63.33012202001078
 20
14.43957948641776
 30
0.0
  0
SEQEND
  5
E8C
  8
CK_LEVEL_1
  0
POLYLINE
  5
10C
  8
CK_LEVEL_1
 66
     1
 10
0.0
 20
0.0
 30
0.0
 70
     1
  0
VERTEX
  5
9D9
  8
CK_LEVEL_1
 10
52.45312076422501
 20
14.43957948641776
 30
0.0
 42
0.267345803135439
  0
VERTEX
  5
9DA
  8
CK_LEVEL_1
 10
52.21959854755529
 20
14.30510577287785
 30
0.0
  0
VERTEX
  5
9DB
  8
CK_LEVEL_1
 10
49.29086707789115
 20
9.258676163610328
 30
0.0
  0
VERTEX
  5
9DC
  8
CK_LEVEL_1
 10
57.32744956816977
 20
9.258676163609774
 30
0.0
  0
VERTEX
  5
9DD
  8
CK_LEVEL_1
 10
54.39871809850528
 20
14.30510577287786
 30
0.0
 42
0.2673458031358555
  0
VERTEX
  5
9DE
  8
CK_LEVEL_1
 10
54.16519588183552
 20
14.43957948641776
 30
0.0
  0
SEQEND
  5
E8D
  8
CK_LEVEL_1
  0
POLYLINE
  5
10D
  8
CK_LEVEL_1
 66
     1
 10
0.0
 20
0.0
 30
0.0
 70
     1
  0
VERTEX
  5
9DF
  8
CK_LEVEL_1
 10
53.0308997475412
 20
8.37262023876908
 30
0.0
 42
0.2673458031354822
  0
VERTEX
  5
9E0
  8
CK_LEVEL_1
 10
52.79737753087148
 20
8.238146525229169
 30
0.0
  0
VERTEX
  5
9E1
  8
CK_LEVEL_1
 10
49.86864606120733
 20
3.191716915961644
 30
0.0
  0
VERTEX
  5
9E2
  8
CK_LEVEL_1
 10
57.90522855148595
 20
3.19171691596109
 30
0.0
  0
VERTEX
  5
9E3
  8
CK_LEVEL_1
 10
54.97649708182147
 20
8.238146525229162
 30
0.0
 42
0.2673458031358981
  0
VERTEX
  5
9E4
  8
CK_LEVEL_1
 10
54.74297486515171
 20
8.37262023876908
 30
0.0
  0
SEQEND
  5
E8E
  8
CK_LEVEL_1
  0
POLYLINE
  5
10E
  8
CK_LEVEL_1
 66
     1
 10
0.0
 20
0.0
 30
0.0
 70
     1
  0
VERTEX
  5
9E5
  8
CK_LEVEL_1
 10
61.61804690240028
 20
8.37262023876908
 30
0.0
 42
0.2673458031354822
  0
VERTEX
  5
9E6
  8
CK_LEVEL_1
 10
61.38452468573056
 20
8.238146525229169
 30
0.0
  0
VERTEX
  5
9E7
  8
CK_LEVEL_1
 10
58.45579321606641
 20
3.191716915961644
 30
0.0
  0
VERTEX
  5
9E8
  8
CK_LEVEL_1
 10
66.49237570634504
 20
3.191716915961054
 30
0.0
  0
VERTEX
  5
9E9
  8
CK_LEVEL_1
 10
63.56364423668055
 20
8.238146525229162
 30
0.0
 42
0.2673458031358981
  0
VERTEX
  5
9EA
  8
CK_LEVEL_1
 10
63.33012202001079
 20
8.37262023876908
 30
0.0
  0
SEQEND
  5
E8F
  8
CK_LEVEL_1
  0
POLYLINE
  5
10F
  8
CK_LEVEL_1
 66
     1
 10
0.0
 20
0.0
 30
0.0
 70
     1
  0
VERTEX
  5
9EB
  8
CK_LEVEL_1
 10
69.9982877946353
 20
3.018041309939617
 30
0.0
  0
VERTEX
  5
9EC
  8
CK_LEVEL_1
 10
78.38625900110354
 20
3.018091333364472
 30
0.0
  0
VERTEX
  5
9ED
  8
CK_LEVEL_1
 10
78.38625900110354
 20
3.252870456703301
 30
0.0
  0
VERTEX
  5
9EE
  8
CK_LEVEL_1
 10
78.39688957648184
 20
3.296615657435689
 30
0.0
  0
VERTEX
  5
9EF
  8
CK_LEVEL_1
 10
78.4024962906997
 20
3.325803618901512
 30
0.0
  0
VERTEX
  5
9F0
  8
CK_LEVEL_1
 10
78.40667726348784
 20
3.355205781857387
 30
0.0
  0
VERTEX
  5
9F1
  8
CK_LEVEL_1
 10
78.4094276665805
 20
3.384767539441976
 30
0.0
  0
VERTEX
  5
9F2
  8
CK_LEVEL_1
 10
78.41074262333733
 20
3.414434315678102
 30
0.0
  0
VERTEX
  5
9F3
  8
CK_LEVEL_1
 10
78.4106172036897
 20
3.44415151783752
 30
0.0
  0
VERTEX
  5
9F4
  8
CK_LEVEL_1
 10
78.40904642950049
 20
3.473864504605638
 30
0.0
  0
VERTEX
  5
9F5
  8
CK_LEVEL_1
 10
78.4060252869063
 20
3.503518544422116
 30
0.0
  0
VERTEX
  5
9F6
  8
CK_LEVEL_1
 10
78.40154874831899
 20
3.533058780362092
 30
0.0
  0
VERTEX
  5
9F7
  8
CK_LEVEL_1
 10
78.39561180104869
 20
3.562430201842256
 30
0.0
  0
VERTEX
  5
9F8
  8
CK_LEVEL_1
 10
78.38820948515627
 20
3.591577614503161
 30
0.0
  0
VERTEX
  5
9F9
  8
CK_LEVEL_1
 10
78.37933693665747
 20
3.620445624551587
 30
0.0
  0
VERTEX
  5
9FA
  8
CK_LEVEL_1
 10
78.36898943574789
 20
3.648978631275179
 30
0.0
  0
VERTEX
  5
9FB
  8
CK_LEVEL_1
 10
78.35716245834652
 20
3.677120829206808
 30
0.0
  0
VERTEX
  5
9FC
  8
CK_LEVEL_1
 10
78.34385173056552
 20
3.704816218657665
 30
0.0
  0
VERTEX
  5
9FD
  8
CK_LEVEL_1
 10
78.32917441814976
 20
3.731786040558713
 30
0.0
  0
VERTEX
  5
9FE
  8
CK_LEVEL_1
 10
76.84485362809603
 20
6.302705063662076
 30
0.0
  0
VERTEX
  5
9FF
  8
CK_LEVEL_1
 10
75.44218181429763
 20
6.297852615794236
 30
0.0
  0
VERTEX
  5
A00
  8
CK_LEVEL_1
 10
75.43034814727798
 20
6.298153569598115
 30
0.0
  0
VERTEX
  5
A01
  8
CK_LEVEL_1
 10
75.41866986204252
 20
6.299043219152306
 30
0.0
  0
VERTEX
  5
A02
  8
CK_LEVEL_1
 10
75.40716140265853
 20
6.300507119640769
 30
0.0
  0
VERTEX
  5
A03
  8
CK_LEVEL_1
 10
75.39583721319336
 20
6.302530826247458
 30
0.0
  0
VERTEX
  5
A04
  8
CK_LEVEL_1
 10
75.3847117377143
 20
6.305099894156331
 30
0.0
  0
VERTEX
  5
A05
  8
CK_LEVEL_1
 10
75.3737994202887
 20
6.308199878551347
 30
0.0
  0
VERTEX
  5
A06
  8
CK_LEVEL_1
 10
75.36311470498386
 20
6.31181633461646
 30
0.0
  0
VERTEX
  5
A07
  8
CK_LEVEL_1
 10
75.3526720358671
 20
6.315934817535629
 30
0.0
  0
VERTEX
  5
A08
  8
CK_LEVEL_1
 10
75.34248585700573
 20
6.320540882492811
 30
0.0
  0
VERTEX
  5
A09
  8
CK_LEVEL_1
 10
75.33257061246707
 20
6.325620084671963
 30
0.0
  0
VERTEX
  5
A0A
  8
CK_LEVEL_1
 10
75.32294074631844
 20
6.331157979257041
 30
0.0
  0
VERTEX
  5
A0B
  8
CK_LEVEL_1
 10
75.31361070262717
 20
6.337140121432004
 30
0.0
  0
VERTEX
  5
A0C
  8
CK_LEVEL_1
 10
75.30459492546056
 20
6.343552066380807
 30
0.0
  0
VERTEX
  5
A0D
  8
CK_LEVEL_1
 10
75.29590785888594
 20
6.350379369287408
 30
0.0
  0
VERTEX
  5
A0E
  8
CK_LEVEL_1
 10
75.28756394697064
 20
6.357607585335765
 30
0.0
  0
VERTEX
  5
A0F
  8
CK_LEVEL_1
 10
75.27957763378194
 20
6.365222269709833
 30
0.0
  0
VERTEX
  5
A10
  8
CK_LEVEL_1
 10
75.27196336338719
 20
6.373208977593571
 30
0.0
  0
VERTEX
  5
A11
  8
CK_LEVEL_1
 10
75.26473557985369
 20
6.381553264170936
 30
0.0
  0
VERTEX
  5
A12
  8
CK_LEVEL_1
 10
75.25790872724879
 20
6.390240684625883
 30
0.0
  0
VERTEX
  5
A13
  8
CK_LEVEL_1
 10
75.25149724963975
 20
6.399256794142373
 30
0.0
  0
VERTEX
  5
A14
  8
CK_LEVEL_1
 10
75.24551559109395
 20
6.408587147904358
 30
0.0
  0
VERTEX
  5
A15
  8
CK_LEVEL_1
 10
75.23997819567867
 20
6.4182173010958
 30
0.0
  0
VERTEX
  5
A16
  8
CK_LEVEL_1
 10
75.23489950746125
 20
6.428132808900653
 30
0.0
  0
VERTEX
  5
A17
  8
CK_LEVEL_1
 10
75.23029397050897
 20
6.438319226502876
 30
0.0
  0
VERTEX
  5
A18
  8
CK_LEVEL_1
 10
75.22617602888917
 20
6.448762109086425
 30
0.0
  0
VERTEX
  5
A19
  8
CK_LEVEL_1
 10
75.22256012666918
 20
6.459447011835255
 30
0.0
  0
VERTEX
  5
A1A
  8
CK_LEVEL_1
 10
75.21946070791633
 20
6.470359489933327
 30
0.0
  0
VERTEX
  5
A1B
  8
CK_LEVEL_1
 10
75.2168922166979
 20
6.481485098564595
 30
0.0
  0
VERTEX
  5
A1C
  8
CK_LEVEL_1
 10
75.21486909708122
 20
6.492809392913018
 30
0.0
  0
VERTEX
  5
A1D
  8
CK_LEVEL_1
 10
75.21340579313362
 20
6.504317928162552
 30
0.0
  0
VERTEX
  5
A1E
  8
CK_LEVEL_1
 10
75.21251674892241
 20
6.515996259497155
 30
0.0
  0
VERTEX
  5
A1F
  8
CK_LEVEL_1
 10
75.2122164085149
 20
6.527829942100784
 30
0.0
  0
VERTEX
  5
A20
  8
CK_LEVEL_1
 10
75.21809458116147
 20
9.120334384634967
 30
0.0
  0
VERTEX
  5
A21
  8
CK_LEVEL_1
 10
74.72078071967047
 20
9.981707260036243
 30
0.0
  0
VERTEX
  5
A22
  8
CK_LEVEL_1
 10
74.70951461443701
 20
10.00048041622891
 30
0.0
  0
VERTEX
  5
A23
  8
CK_LEVEL_1
 10
74.69774851025979
 20
10.0186575992091
 30
0.0
  0
VERTEX
  5
A24
  8
CK_LEVEL_1
 10
74.68549853613696
 20
10.03623880897683
 30
0.0
  0
VERTEX
  5
A25
  8
CK_LEVEL_1
 10
74.67278082106672
 20
10.0532240455321
 30
0.0
  0
VERTEX
  5
A26
  8
CK_LEVEL_1
 10
74.65961149404727
 20
10.0696133088749
 30
0.0
  0
VERTEX
  5
A27
  8
CK_LEVEL_1
 10
74.64600668407677
 20
10.08540659900524
 30
0.0
  0
VERTEX
  5
A28
  8
CK_LEVEL_1
 10
74.63198252015343
 20
10.10060391592311
 30
0.0
  0
VERTEX
  5
A29
  8
CK_LEVEL_1
 10
74.61755513127542
 20
10.11520525962851
 30
0.0
  0
VERTEX
  5
A2A
  8
CK_LEVEL_1
 10
74.60274064644096
 20
10.12921063012145
 30
0.0
  0
VERTEX
  5
A2B
  8
CK_LEVEL_1
 10
74.58755519464819
 20
10.14262002740192
 30
0.0
  0
VERTEX
  5
A2C
  8
CK_LEVEL_1
 10
74.57201490489533
 20
10.15543345146993
 30
0.0
  0
VERTEX
  5
A2D
  8
CK_LEVEL_1
 10
74.55613590618053
 20
10.16765090232547
 30
0.0
  0
VERTEX
  5
A2E
  8
CK_LEVEL_1
 10
74.53993432750201
 20
10.17927237996855
 30
0.0
  0
VERTEX
  5
A2F
  8
CK_LEVEL_1
 10
74.52342629785795
 20
10.19029788439916
 30
0.0
  0
VERTEX
  5
A30
  8
CK_LEVEL_1
 10
74.50662794624655
 20
10.2007274156173
 30
0.0
  0
VERTEX
  5
A31
  8
CK_LEVEL_1
 10
74.48955540166597
 20
10.21056097362298
 30
0.0
  0
VERTEX
  5
A32
  8
CK_LEVEL_1
 10
74.4722247931144
 20
10.2197985584162
 30
0.0
  0
VERTEX
  5
A33
  8
CK_LEVEL_1
 10
74.45465224959003
 20
10.22844016999695
 30
0.0
  0
VERTEX
  5
A34
  8
CK_LEVEL_1
 10
74.43685390009105
 20
10.23648580836523
 30
0.0
  0
VERTEX
  5
A35
  8
CK_LEVEL_1
 10
74.41884587361567
 20
10.24393547352105
 30
0.0
  0
VERTEX
  5
A36
  8
CK_LEVEL_1
 10
74.40064429916202
 20
10.2507891654644
 30
0.0
  0
VERTEX
  5
A37
  8
CK_LEVEL_1
 10
74.38226530572834
 20
10.25704688419528
 30
0.0
  0
VERTEX
  5
A38
  8
CK_LEVEL_1
 10
74.36372502231279
 20
10.26270862971371
 30
0.0
  0
VERTEX
  5
A39
  8
CK_LEVEL_1
 10
74.34503957791355
 20
10.26777440201966
 30
0.0
  0
VERTEX
  5
A3A
  8
CK_LEVEL_1
 10
74.32622510152882
 20
10.27224420111315
 30
0.0
  0
VERTEX
  5
A3B
  8
CK_LEVEL_1
 10
74.3072977221568
 20
10.27611802699418
 30
0.0
  0
VERTEX
  5
A3C
  8
CK_LEVEL_1
 10
74.28827356879566
 20
10.27939587966273
 30
0.0
  0
VERTEX
  5
A3D
  8
CK_LEVEL_1
 10
74.2691687704436
 20
10.28207775911883
 30
0.0
  0
VERTEX
  5
A3E
  8
CK_LEVEL_1
 10
74.24999945609878
 20
10.28416366536246
 30
0.0
  0
VERTEX
  5
A3F
  8
CK_LEVEL_1
 10
74.23078175475939
 20
10.28565359839362
 30
0.0
  0
VERTEX
  5
A40
  8
CK_LEVEL_1
 10
74.21153179542364
 20
10.28654755821232
 30
0.0
  0
VERTEX
  5
A41
  8
CK_LEVEL_1
 10
74.1922657070897
 20
10.28684554481855
 30
0.0
  0
VERTEX
  5
A42
  8
CK_LEVEL_1
 10
74.17299961875577
 20
10.28654755821231
 30
0.0
  0
VERTEX
  5
A43
  8
CK_LEVEL_1
 10
74.15374965942001
 20
10.28565359839361
 30
0.0
  0
VERTEX
  5
A44
  8
CK_LEVEL_1
 10
74.13453195808063
 20
10.28416366536245
 30
0.0
  0
VERTEX
  5
A45
  8
CK_LEVEL_1
 10
74.1153626437358
 20
10.28207775911882
 30
0.0
  0
VERTEX
  5
A46
  8
CK_LEVEL_1
 10
74.09625784538375
 20
10.27939587966272
 30
0.0
  0
VERTEX
  5
A47
  8
CK_LEVEL_1
 10
74.0772336920226
 20
10.27611802699416
 30
0.0
  0
VERTEX
  5
A48
  8
CK_LEVEL_1
 10
74.05830631265059
 20
10.27224420111313
 30
0.0
  0
VERTEX
  5
A49
  8
CK_LEVEL_1
 10
74.03949183626585
 20
10.26777440201964
 30
0.0
  0
VERTEX
  5
A4A
  8
CK_LEVEL_1
 10
74.02080639186661
 20
10.26270862971368
 30
0.0
  0
VERTEX
  5
A4B
  8
CK_LEVEL_1
 10
74.00226610845107
 20
10.25704688419526
 30
0.0
  0
VERTEX
  5
A4C
  8
CK_LEVEL_1
 10
73.9838871150174
 20
10.25078916546437
 30
0.0
  0
VERTEX
  5
A4D
  8
CK_LEVEL_1
 10
73.96568554056375
 20
10.24393547352101
 30
0.0
  0
VERTEX
  5
A4E
  8
CK_LEVEL_1
 10
73.94767751408835
 20
10.23648580836519
 30
0.0
  0
VERTEX
  5
A4F
  8
CK_LEVEL_1
 10
73.92987916458938
 20
10.22844016999691
 30
0.0
  0
VERTEX
  5
A50
  8
CK_LEVEL_1
 10
73.91230662106503
 20
10.21979855841616
 30
0.0
  0
VERTEX
  5
A51
  8
CK_LEVEL_1
 10
73.89497601251347
 20
10.21056097362294
 30
0.0
  0
VERTEX
  5
A52
  8
CK_LEVEL_1
 10
73.87790346793288
 20
10.20072741561726
 30
0.0
  0
VERTEX
  5
A53
  8
CK_LEVEL_1
 10
73.86110511632148
 20
10.19029788439911
 30
0.0
  0
VERTEX
  5
A54
  8
CK_LEVEL_1
 10
73.84459708667742
 20
10.1792723799685
 30
0.0
  0
VERTEX
  5
A55
  8
CK_LEVEL_1
 10
73.82839550799892
 20
10.16765090232542
 30
0.0
  0
VERTEX
  5
A56
  8
CK_LEVEL_1
 10
73.81251650928414
 20
10.15543345146988
 30
0.0
  0
VERTEX
  5
A57
  8
CK_LEVEL_1
 10
73.79697621953127
 20
10.14262002740187
 30
0.0
  0
VERTEX
  5
A58
  8
CK_LEVEL_1
 10
73.7817907677385
 20
10.12921063012139
 30
0.0
  0
VERTEX
  5
A59
  8
CK_LEVEL_1
 10
73.76697628290403
 20
10.11520525962845
 30
0.0
  0
VERTEX
  5
A5A
  8
CK_LEVEL_1
 10
73.75254889402603
 20
10.10060391592305
 30
0.0
  0
VERTEX
  5
A5B
  8
CK_LEVEL_1
 10
73.73852473010268
 20
10.08540659900517
 30
0.0
  0
VERTEX
  5
A5C
  8
CK_LEVEL_1
 10
73.7249199201322
 20
10.06961330887484
 30
0.0
  0
VERTEX
  5
A5D
  8
CK_LEVEL_1
 10
73.71175059311274
 20
10.05322404553204
 30
0.0
  0
VERTEX
  5
A5E
  8
CK_LEVEL_1
 10
73.6990328780425
 20
10.03623880897677
 30
0.0
  0
VERTEX
  5
A5F
  8
CK_LEVEL_1
 10
73.68678290391968
 20
10.01865759920904
 30
0.0
  0
VERTEX
  5
A60
  8
CK_LEVEL_1
 10
73.67501679974245
 20
10.00048041622884
 30
0.0
  0
VERTEX
  5
A61
  8
CK_LEVEL_1
 10
73.66375069450899
 20
9.981707260036172
 30
0.0
  0
VERTEX
  5
A62
  8
CK_LEVEL_1
 10
73.1599403196277
 20
9.109082093360922
 30
0.0
  0
VERTEX
  5
A63
  8
CK_LEVEL_1
 10
73.1722164085149
 20
6.527805057863379
 30
0.0
  0
VERTEX
  5
A64
  8
CK_LEVEL_1
 10
73.17191482404547
 20
6.51597214871023
 30
0.0
  0
VERTEX
  5
A65
  8
CK_LEVEL_1
 10
73.1710246230935
 20
6.504294625046601
 30
0.0
  0
VERTEX
  5
A66
  8
CK_LEVEL_1
 10
73.16956024816162
 20
6.492786928293468
 30
0.0
  0
VERTEX
  5
A67
  8
CK_LEVEL_1
 10
73.16753614175242
 20
6.481463499871804
 30
0.0
  0
VERTEX
  5
A68
  8
CK_LEVEL_1
 10
73.16496674636855
 20
6.470338781202582
 30
0.0
  0
VERTEX
  5
A69
  8
CK_LEVEL_1
 10
73.16186650451263
 20
6.459427213706776
 30
0.0
  0
VERTEX
  5
A6A
  8
CK_LEVEL_1
 10
73.1582498586873
 20
6.448743238805359
 30
0.0
  0
VERTEX
  5
A6B
  8
CK_LEVEL_1
 10
73.15413125139514
 20
6.438301297919306
 30
0.0
  0
VERTEX
  5
A6C
  8
CK_LEVEL_1
 10
73.14952512513884
 20
6.42811583246959
 30
0.0
  0
VERTEX
  5
A6D
  8
CK_LEVEL_1
 10
73.14444592242097
 20
6.418201283877183
 30
0.0
  0
VERTEX
  5
A6E
  8
CK_LEVEL_1
 10
73.13890808574419
 20
6.40857209356306
 30
0.0
  0
VERTEX
  5
A6F
  8
CK_LEVEL_1
 10
73.13292605761112
 20
6.399242702948195
 30
0.0
  0
VERTEX
  5
A70
  8
CK_LEVEL_1
 10
73.12651428052436
 20
6.39022755345356
 30
0.0
  0
VERTEX
  5
A71
  8
CK_LEVEL_1
 10
73.11968719698658
 20
6.38154108650013
 30
0.0
  0
VERTEX
  5
A72
  8
CK_LEVEL_1
 10
73.11245924950035
 20
6.373197743508878
 30
0.0
  0
VERTEX
  5
A73
  8
CK_LEVEL_1
 10
73.10484488056835
 20
6.365211965900778
 30
0.0
  0
VERTEX
  5
A74
  8
CK_LEVEL_1
 10
73.09685853269318
 20
6.357598195096803
 30
0.0
  0
VERTEX
  5
A75
  8
CK_LEVEL_1
 10
73.08851464837745
 20
6.350370872517926
 30
0.0
  0
VERTEX
  5
A76
  8
CK_LEVEL_1
 10
73.07982767012382
 20
6.343544439585123
 30
0.0
  0
VERTEX
  5
A77
  8
CK_LEVEL_1
 10
73.07081204043492
 20
6.337133337719365
 30
0.0
  0
VERTEX
  5
A78
  8
CK_LEVEL_1
 10
73.06148220181333
 20
6.331152008341626
 30
0.0
  0
VERTEX
  5
A79
  8
CK_LEVEL_1
 10
73.05185259676172
 20
6.325614892872879
 30
0.0
  0
VERTEX
  5
A7A
  8
CK_LEVEL_1
 10
73.04193766778269
 20
6.320536432734102
 30
0.0
  0
VERTEX
  5
A7B
  8
CK_LEVEL_1
 10
73.03175185737888
 20
6.315931069346263
 30
0.0
  0
VERTEX
  5
A7C
  8
CK_LEVEL_1
 10
73.0213096080529
 20
6.311813244130338
 30
0.0
  0
VERTEX
  5
A7D
  8
CK_LEVEL_1
 10
73.0106253623074
 20
6.308197398507302
 30
0.0
  0
VERTEX
  5
A7E
  8
CK_LEVEL_1
 10
72.99971356264497
 20
6.305097973898125
 30
0.0
  0
VERTEX
  5
A7F
  8
CK_LEVEL_1
 10
72.98858865156826
 20
6.302529411723784
 30
0.0
  0
VERTEX
  5
A80
  8
CK_LEVEL_1
 10
72.97726507157991
 20
6.300506153405251
 30
0.0
  0
VERTEX
  5
A81
  8
CK_LEVEL_1
 10
72.96575726518252
 20
6.299042640363499
 30
0.0
  0
VERTEX
  5
A82
  8
CK_LEVEL_1
 10
72.95407967487873
 20
6.298153314019503
 30
0.0
  0
VERTEX
  5
A83
  8
CK_LEVEL_1
 10
72.94224674317114
 20
6.297852615794236
 30
0.0
  0
VERTEX
  5
A84
  8
CK_LEVEL_1
 10
71.53933325333175
 20
6.302108315431427
 30
0.0
  0
VERTEX
  5
A85
  8
CK_LEVEL_1
 10
70.05535726075396
 20
3.731786499074556
 30
0.0
  0
VERTEX
  5
A86
  8
CK_LEVEL_1
 10
70.04073235723996
 20
3.70491636657729
 30
0.0
  0
VERTEX
  5
A87
  8
CK_LEVEL_1
 10
70.02745715735028
 20
3.677307058487338
 30
0.0
  0
VERTEX
  5
A88
  8
CK_LEVEL_1
 10
70.01565068515663
 20
3.649236882000617
 30
0.0
  0
VERTEX
  5
A89
  8
CK_LEVEL_1
 10
70.00531080433058
 20
3.62076186128794
 30
0.0
  0
VERTEX
  5
A8A
  8
CK_LEVEL_1
 10
69.99643516055704
 20
3.59193782943222
 30
0.0
  0
VERTEX
  5
A8B
  8
CK_LEVEL_1
 10
69.98902123353031
 20
3.562820422377365
 30
0.0
  0
VERTEX
  5
A8C
  8
CK_LEVEL_1
 10
69.98306638671875
 20
3.533465086095214
 30
0.0
  0
VERTEX
  5
A8D
  8
CK_LEVEL_1
 10
69.97856791126856
 20
3.503927088664534
 30
0.0
  0
VERTEX
  5
A8E
  8
CK_LEVEL_1
 10
69.97552306445426
 20
3.474261539812654
 30
0.0
  0
VERTEX
  5
A8F
  8
CK_LEVEL_1
 10
69.9739291020466
 20
3.444523423608155
 30
0.0
  0
VERTEX
  5
A90
  8
CK_LEVEL_1
 10
69.97378330189036
 20
3.414767627151798
 30
0.0
  0
VERTEX
  5
A91
  8
CK_LEVEL_1
 10
69.97508298015022
 20
3.385048979627721
 30
0.0
  0
VERTEX
  5
A92
  8
CK_LEVEL_1
 10
69.97782549856453
 20
3.3554222880559
 30
0.0
  0
VERTEX
  5
A93
  8
CK_LEVEL_1
 10
69.9820082632111
 20
3.325942381078187
 30
0.0
  0
VERTEX
  5
A94
  8
CK_LEVEL_1
 10
69.98762871556113
 20
3.29666413862966
 30
0.0
  0
VERTEX
  5
A95
  8
CK_LEVEL_1
 10
69.9982877946353
 20
3.252820433278446
 30
0.0
  0
SEQEND
  5
E90
  8
CK_LEVEL_1
  0
POLYLINE
  5
110
  8
CK_LEVEL_1
 66
     1
 10
0.0
 20
0.0
 30
0.0
 70
     1
  0
VERTEX
  5
A96
  8
CK_LEVEL_1
 10
79.48974033330768
 20
3.018041309939617
 30
0.0
  0
VERTEX
  5
A97
  8
CK_LEVEL_1
 10
87.87771153977592
 20
3.018091333364472
 30
0.0
  0
VERTEX
  5
A98
  8
CK_LEVEL_1
 10
87.87771153977592
 20
3.252870456703301
 30
0.0
  0
VERTEX
  5
A99
  8
CK_LEVEL_1
 10
87.88834211515422
 20
3.296615657435689
 30
0.0
  0
VERTEX
  5
A9A
  8
CK_LEVEL_1
 10
87.89394882937208
 20
3.325803618901512
 30
0.0
  0
VERTEX
  5
A9B
  8
CK_LEVEL_1
 10
87.89812980216021
 20
3.355205781857387
 30
0.0
  0
VERTEX
  5
A9C
  8
CK_LEVEL_1
 10
87.90088020525288
 20
3.384767539441976
 30
0.0
  0
VERTEX
  5
A9D
  8
CK_LEVEL_1
 10
87.9021951620097
 20
3.414434315678102
 30
0.0
  0
VERTEX
  5
A9E
  8
CK_LEVEL_1
 10
87.90206974236207
 20
3.44415151783752
 30
0.0
  0
VERTEX
  5
A9F
  8
CK_LEVEL_1
 10
87.90049896817287
 20
3.473864504605638
 30
0.0
  0
VERTEX
  5
AA0
  8
CK_LEVEL_1
 10
87.89747782557868
 20
3.503518544422116
 30
0.0
  0
VERTEX
  5
AA1
  8
CK_LEVEL_1
 10
87.89300128699136
 20
3.533058780362092
 30
0.0
  0
VERTEX
  5
AA2
  8
CK_LEVEL_1
 10
87.88706433972106
 20
3.562430201842256
 30
0.0
  0
VERTEX
  5
AA3
  8
CK_LEVEL_1
 10
87.87966202382864
 20
3.591577614503161
 30
0.0
  0
VERTEX
  5
AA4
  8
CK_LEVEL_1
 10
87.87078947532984
 20
3.620445624551587
 30
0.0
  0
VERTEX
  5
AA5
  8
CK_LEVEL_1
 10
87.86044197442027
 20
3.648978631275179
 30
0.0
  0
VERTEX
  5
AA6
  8
CK_LEVEL_1
 10
87.8486149970189
 20
3.677120829206808
 30
0.0
  0
VERTEX
  5
AA7
  8
CK_LEVEL_1
 10
87.8353042692379
 20
3.704816218657665
 30
0.0
  0
VERTEX
  5
AA8
  8
CK_LEVEL_1
 10
87.82062695682214
 20
3.731786040558713
 30
0.0
  0
VERTEX
  5
AA9
  8
CK_LEVEL_1
 10
86.33630616676841
 20
6.302705063662076
 30
0.0
  0
VERTEX
  5
AAA
  8
CK_LEVEL_1
 10
84.93363435297
 20
6.297852615794236
 30
0.0
  0
VERTEX
  5
AAB
  8
CK_LEVEL_1
 10
84.92180068595036
 20
6.298153569598115
 30
0.0
  0
VERTEX
  5
AAC
  8
CK_LEVEL_1
 10
84.9101224007149
 20
6.299043219152306
 30
0.0
  0
VERTEX
  5
AAD
  8
CK_LEVEL_1
 10
84.89861394133091
 20
6.300507119640769
 30
0.0
  0
VERTEX
  5
AAE
  8
CK_LEVEL_1
 10
84.88728975186574
 20
6.302530826247458
 30
0.0
  0
VERTEX
  5
AAF
  8
CK_LEVEL_1
 10
84.87616427638667
 20
6.305099894156331
 30
0.0
  0
VERTEX
  5
AB0
  8
CK_LEVEL_1
 10
84.86525195896108
 20
6.308199878551347
 30
0.0
  0
VERTEX
  5
AB1
  8
CK_LEVEL_1
 10
84.85456724365623
 20
6.31181633461646
 30
0.0
  0
VERTEX
  5
AB2
  8
CK_LEVEL_1
 10
84.84412457453948
 20
6.315934817535629
 30
0.0
  0
VERTEX
  5
AB3
  8
CK_LEVEL_1
 10
84.8339383956781
 20
6.320540882492811
 30
0.0
  0
VERTEX
  5
AB4
  8
CK_LEVEL_1
 10
84.82402315113944
 20
6.325620084671963
 30
0.0
  0
VERTEX
  5
AB5
  8
CK_LEVEL_1
 10
84.81439328499081
 20
6.331157979257041
 30
0.0
  0
VERTEX
  5
AB6
  8
CK_LEVEL_1
 10
84.80506324129955
 20
6.337140121432004
 30
0.0
  0
VERTEX
  5
AB7
  8
CK_LEVEL_1
 10
84.79604746413294
 20
6.343552066380807
 30
0.0
  0
VERTEX
  5
AB8
  8
CK_LEVEL_1
 10
84.78736039755832
 20
6.350379369287408
 30
0.0
  0
VERTEX
  5
AB9
  8
CK_LEVEL_1
 10
84.77901648564301
 20
6.357607585335765
 30
0.0
  0
VERTEX
  5
ABA
  8
CK_LEVEL_1
 10
84.77103017245432
 20
6.365222269709833
 30
0.0
  0
VERTEX
  5
ABB
  8
CK_LEVEL_1
 10
84.76341590205956
 20
6.373208977593571
 30
0.0
  0
VERTEX
  5
ABC
  8
CK_LEVEL_1
 10
84.75618811852607
 20
6.381553264170936
 30
0.0
  0
VERTEX
  5
ABD
  8
CK_LEVEL_1
 10
84.74936126592117
 20
6.390240684625883
 30
0.0
  0
VERTEX
  5
ABE
  8
CK_LEVEL_1
 10
84.74294978831213
 20
6.399256794142373
 30
0.0
  0
VERTEX
  5
ABF
  8
CK_LEVEL_1
 10
84.73696812976632
 20
6.408587147904358
 30
0.0
  0
VERTEX
  5
AC0
  8
CK_LEVEL_1
 10
84.73143073435105
 20
6.4182173010958
 30
0.0
  0
VERTEX
  5
AC1
  8
CK_LEVEL_1
 10
84.72635204613363
 20
6.428132808900653
 30
0.0
  0
VERTEX
  5
AC2
  8
CK_LEVEL_1
 10
84.72174650918134
 20
6.438319226502876
 30
0.0
  0
VERTEX
  5
AC3
  8
CK_LEVEL_1
 10
84.71762856756155
 20
6.448762109086425
 30
0.0
  0
VERTEX
  5
AC4
  8
CK_LEVEL_1
 10
84.71401266534156
 20
6.459447011835255
 30
0.0
  0
VERTEX
  5
AC5
  8
CK_LEVEL_1
 10
84.7109132465887
 20
6.470359489933327
 30
0.0
  0
VERTEX
  5
AC6
  8
CK_LEVEL_1
 10
84.70834475537028
 20
6.481485098564595
 30
0.0
  0
VERTEX
  5
AC7
  8
CK_LEVEL_1
 10
84.7063216357536
 20
6.492809392913018
 30
0.0
  0
VERTEX
  5
AC8
  8
CK_LEVEL_1
 10
84.704858331806
 20
6.504317928162552
 30
0.0
  0
VERTEX
  5
AC9
  8
CK_LEVEL_1
 10
84.70396928759479
 20
6.515996259497155
 30
0.0
  0
VERTEX
  5
ACA
  8
CK_LEVEL_1
 10
84.70366894718728
 20
6.527829942100784
 30
0.0
  0
VERTEX
  5
ACB
  8
CK_LEVEL_1
 10
84.70954711983384
 20
9.120334384634967
 30
0.0
  0
VERTEX
  5
ACC
  8
CK_LEVEL_1
 10
84.21223325834285
 20
9.981707260036243
 30
0.0
  0
VERTEX
  5
ACD
  8
CK_LEVEL_1
 10
84.20096715310939
 20
10.00048041622891
 30
0.0
  0
VERTEX
  5
ACE
  8
CK_LEVEL_1
 10
84.18920104893216
 20
10.0186575992091
 30
0.0
  0
VERTEX
  5
ACF
  8
CK_LEVEL_1
 10
84.17695107480934
 20
10.03623880897683
 30
0.0
  0
VERTEX
  5
AD0
  8
CK_LEVEL_1
 10
84.1642333597391
 20
10.0532240455321
 30
0.0
  0
VERTEX
  5
AD1
  8
CK_LEVEL_1
 10
84.15106403271965
 20
10.0696133088749
 30
0.0
  0
VERTEX
  5
AD2
  8
CK_LEVEL_1
 10
84.13745922274914
 20
10.08540659900524
 30
0.0
  0
VERTEX
  5
AD3
  8
CK_LEVEL_1
 10
84.1234350588258
 20
10.10060391592311
 30
0.0
  0
VERTEX
  5
AD4
  8
CK_LEVEL_1
 10
84.1090076699478
 20
10.11520525962851
 30
0.0
  0
VERTEX
  5
AD5
  8
CK_LEVEL_1
 10
84.09419318511334
 20
10.12921063012145
 30
0.0
  0
VERTEX
  5
AD6
  8
CK_LEVEL_1
 10
84.07900773332057
 20
10.14262002740192
 30
0.0
  0
VERTEX
  5
AD7
  8
CK_LEVEL_1
 10
84.0634674435677
 20
10.15543345146993
 30
0.0
  0
VERTEX
  5
AD8
  8
CK_LEVEL_1
 10
84.0475884448529
 20
10.16765090232547
 30
0.0
  0
VERTEX
  5
AD9
  8
CK_LEVEL_1
 10
84.03138686617439
 20
10.17927237996855
 30
0.0
  0
VERTEX
  5
ADA
  8
CK_LEVEL_1
 10
84.01487883653033
 20
10.19029788439916
 30
0.0
  0
VERTEX
  5
ADB
  8
CK_LEVEL_1
 10
83.99808048491893
 20
10.2007274156173
 30
0.0
  0
VERTEX
  5
ADC
  8
CK_LEVEL_1
 10
83.98100794033834
 20
10.21056097362298
 30
0.0
  0
VERTEX
  5
ADD
  8
CK_LEVEL_1
 10
83.96367733178678
 20
10.2197985584162
 30
0.0
  0
VERTEX
  5
ADE
  8
CK_LEVEL_1
 10
83.9461047882624
 20
10.22844016999695
 30
0.0
  0
VERTEX
  5
ADF
  8
CK_LEVEL_1
 10
83.92830643876343
 20
10.23648580836523
 30
0.0
  0
VERTEX
  5
AE0
  8
CK_LEVEL_1
 10
83.91029841228804
 20
10.24393547352105
 30
0.0
  0
VERTEX
  5
AE1
  8
CK_LEVEL_1
 10
83.8920968378344
 20
10.2507891654644
 30
0.0
  0
VERTEX
  5
AE2
  8
CK_LEVEL_1
 10
83.87371784440072
 20
10.25704688419528
 30
0.0
  0
VERTEX
  5
AE3
  8
CK_LEVEL_1
 10
83.85517756098517
 20
10.26270862971371
 30
0.0
  0
VERTEX
  5
AE4
  8
CK_LEVEL_1
 10
83.83649211658593
 20
10.26777440201966
 30
0.0
  0
VERTEX
  5
AE5
  8
CK_LEVEL_1
 10
83.8176776402012
 20
10.27224420111315
 30
0.0
  0
VERTEX
  5
AE6
  8
CK_LEVEL_1
 10
83.79875026082918
 20
10.27611802699418
 30
0.0
  0
VERTEX
  5
AE7
  8
CK_LEVEL_1
 10
83.77972610746804
 20
10.27939587966273
 30
0.0
  0
VERTEX
  5
AE8
  8
CK_LEVEL_1
 10
83.76062130911598
 20
10.28207775911883
 30
0.0
  0
VERTEX
  5
AE9
  8
CK_LEVEL_1
 10
83.74145199477115
 20
10.28416366536246
 30
0.0
  0
VERTEX
  5
AEA
  8
CK_LEVEL_1
 10
83.72223429343177
 20
10.28565359839362
 30
0.0
  0
VERTEX
  5
AEB
  8
CK_LEVEL_1
 10
83.70298433409602
 20
10.28654755821232
 30
0.0
  0
VERTEX
  5
AEC
  8
CK_LEVEL_1
 10
83.68371824576208
 20
10.28684554481855
 30
0.0
  0
VERTEX
  5
AED
  8
CK_LEVEL_1
 10
83.66445215742814
 20
10.28654755821231
 30
0.0
  0
VERTEX
  5
AEE
  8
CK_LEVEL_1
 10
83.64520219809239
 20
10.28565359839361
 30
0.0
  0
VERTEX
  5
AEF
  8
CK_LEVEL_1
 10
83.625984496753
 20
10.28416366536245
 30
0.0
  0
VERTEX
  5
AF0
  8
CK_LEVEL_1
 10
83.60681518240818
 20
10.28207775911882
 30
0.0
  0
VERTEX
  5
AF1
  8
CK_LEVEL_1
 10
83.58771038405612
 20
10.27939587966272
 30
0.0
  0
VERTEX
  5
AF2
  8
CK_LEVEL_1
 10
83.56868623069498
 20
10.27611802699416
 30
0.0
  0
VERTEX
  5
AF3
  8
CK_LEVEL_1
 10
83.54975885132296
 20
10.27224420111313
 30
0.0
  0
VERTEX
  5
AF4
  8
CK_LEVEL_1
 10
83.53094437493823
 20
10.26777440201964
 30
0.0
  0
VERTEX
  5
AF5
  8
CK_LEVEL_1
 10
83.51225893053899
 20
10.26270862971368
 30
0.0
  0
VERTEX
  5
AF6
  8
CK_LEVEL_1
 10
83.49371864712344
 20
10.25704688419526
 30
0.0
  0
VERTEX
  5
AF7
  8
CK_LEVEL_1
 10
83.47533965368977
 20
10.25078916546437
 30
0.0
  0
VERTEX
  5
AF8
  8
CK_LEVEL_1
 10
83.45713807923613
 20
10.24393547352101
 30
0.0
  0
VERTEX
  5
AF9
  8
CK_LEVEL_1
 10
83.43913005276073
 20
10.23648580836519
 30
0.0
  0
VERTEX
  5
AFA
  8
CK_LEVEL_1
 10
83.42133170326176
 20
10.22844016999691
 30
0.0
  0
VERTEX
  5
AFB
  8
CK_LEVEL_1
 10
83.4037591597374
 20
10.21979855841616
 30
0.0
  0
VERTEX
  5
AFC
  8
CK_LEVEL_1
 10
83.38642855118584
 20
10.21056097362294
 30
0.0
  0
VERTEX
  5
AFD
  8
CK_LEVEL_1
 10
83.36935600660526
 20
10.20072741561726
 30
0.0
  0
VERTEX
  5
AFE
  8
CK_LEVEL_1
 10
83.35255765499386
 20
10.19029788439911
 30
0.0
  0
VERTEX
  5
AFF
  8
CK_LEVEL_1
 10
83.3360496253498
 20
10.1792723799685
 30
0.0
  0
VERTEX
  5
B00
  8
CK_LEVEL_1
 10
83.3198480466713
 20
10.16765090232542
 30
0.0
  0
VERTEX
  5
B01
  8
CK_LEVEL_1
 10
83.30396904795651
 20
10.15543345146988
 30
0.0
  0
VERTEX
  5
B02
  8
CK_LEVEL_1
 10
83.28842875820365
 20
10.14262002740187
 30
0.0
  0
VERTEX
  5
B03
  8
CK_LEVEL_1
 10
83.27324330641088
 20
10.12921063012139
 30
0.0
  0
VERTEX
  5
B04
  8
CK_LEVEL_1
 10
83.2584288215764
 20
10.11520525962845
 30
0.0
  0
VERTEX
  5
B05
  8
CK_LEVEL_1
 10
83.24400143269841
 20
10.10060391592305
 30
0.0
  0
VERTEX
  5
B06
  8
CK_LEVEL_1
 10
83.22997726877506
 20
10.08540659900517
 30
0.0
  0
VERTEX
  5
B07
  8
CK_LEVEL_1
 10
83.21637245880457
 20
10.06961330887484
 30
0.0
  0
VERTEX
  5
B08
  8
CK_LEVEL_1
 10
83.20320313178512
 20
10.05322404553204
 30
0.0
  0
VERTEX
  5
B09
  8
CK_LEVEL_1
 10
83.19048541671488
 20
10.03623880897677
 30
0.0
  0
VERTEX
  5
B0A
  8
CK_LEVEL_1
 10
83.17823544259205
 20
10.01865759920904
 30
0.0
  0
VERTEX
  5
B0B
  8
CK_LEVEL_1
 10
83.16646933841483
 20
10.00048041622884
 30
0.0
  0
VERTEX
  5
B0C
  8
CK_LEVEL_1
 10
83.15520323318137
 20
9.981707260036172
 30
0.0
  0
VERTEX
  5
B0D
  8
CK_LEVEL_1
 10
82.65139285830007
 20
9.109082093360922
 30
0.0
  0
VERTEX
  5
B0E
  8
CK_LEVEL_1
 10
82.66366894718728
 20
6.527805057863379
 30
0.0
  0
VERTEX
  5
B0F
  8
CK_LEVEL_1
 10
82.66336736271785
 20
6.51597214871023
 30
0.0
  0
VERTEX
  5
B10
  8
CK_LEVEL_1
 10
82.66247716176588
 20
6.504294625046601
 30
0.0
  0
VERTEX
  5
B11
  8
CK_LEVEL_1
 10
82.661012786834
 20
6.492786928293468
 30
0.0
  0
VERTEX
  5
B12
  8
CK_LEVEL_1
 10
82.6589886804248
 20
6.481463499871804
 30
0.0
  0
VERTEX
  5
B13
  8
CK_LEVEL_1
 10
82.65641928504093
 20
6.470338781202582
 30
0.0
  0
VERTEX
  5
B14
  8
CK_LEVEL_1
 10
82.65331904318501
 20
6.459427213706776
 30
0.0
  0
VERTEX
  5
B15
  8
CK_LEVEL_1
 10
82.64970239735968
 20
6.448743238805359
 30
0.0
  0
VERTEX
  5
B16
  8
CK_LEVEL_1
 10
82.64558379006752
 20
6.438301297919306
 30
0.0
  0
VERTEX
  5
B17
  8
CK_LEVEL_1
 10
82.64097766381121
 20
6.42811583246959
 30
0.0
  0
VERTEX
  5
B18
  8
CK_LEVEL_1
 10
82.63589846109335
 20
6.418201283877183
 30
0.0
  0
VERTEX
  5
B19
  8
CK_LEVEL_1
 10
82.63036062441657
 20
6.40857209356306
 30
0.0
  0
VERTEX
  5
B1A
  8
CK_LEVEL_1
 10
82.62437859628349
 20
6.399242702948195
 30
0.0
  0
VERTEX
  5
B1B
  8
CK_LEVEL_1
 10
82.61796681919674
 20
6.39022755345356
 30
0.0
  0
VERTEX
  5
B1C
  8
CK_LEVEL_1
 10
82.61113973565895
 20
6.38154108650013
 30
0.0
  0
VERTEX
  5
B1D
  8
CK_LEVEL_1
 10
82.60391178817272
 20
6.373197743508878
 30
0.0
  0
VERTEX
  5
B1E
  8
CK_LEVEL_1
 10
82.59629741924073
 20
6.365211965900778
 30
0.0
  0
VERTEX
  5
B1F
  8
CK_LEVEL_1
 10
82.58831107136555
 20
6.357598195096803
 30
0.0
  0
VERTEX
  5
B20
  8
CK_LEVEL_1
 10
82.57996718704983
 20
6.350370872517926
 30
0.0
  0
VERTEX
  5
B21
  8
CK_LEVEL_1
 10
82.5712802087962
 20
6.343544439585123
 30
0.0
  0
VERTEX
  5
B22
  8
CK_LEVEL_1
 10
82.56226457910729
 20
6.337133337719365
 30
0.0
  0
VERTEX
  5
B23
  8
CK_LEVEL_1
 10
82.55293474048571
 20
6.331152008341626
 30
0.0
  0
VERTEX
  5
B24
  8
CK_LEVEL_1
 10
82.5433051354341
 20
6.325614892872879
 30
0.0
  0
VERTEX
  5
B25
  8
CK_LEVEL_1
 10
82.53339020645507
 20
6.320536432734102
 30
0.0
  0
VERTEX
  5
B26
  8
CK_LEVEL_1
 10
82.52320439605126
 20
6.315931069346263
 30
0.0
  0
VERTEX
  5
B27
  8
CK_LEVEL_1
 10
82.51276214672528
 20
6.311813244130338
 30
0.0
  0
VERTEX
  5
B28
  8
CK_LEVEL_1
 10
82.50207790097977
 20
6.308197398507302
 30
0.0
  0
VERTEX
  5
B29
  8
CK_LEVEL_1
 10
82.49116610131735
 20
6.305097973898125
 30
0.0
  0
VERTEX
  5
B2A
  8
CK_LEVEL_1
 10
82.48004119024064
 20
6.302529411723784
 30
0.0
  0
VERTEX
  5
B2B
  8
CK_LEVEL_1
 10
82.46871761025228
 20
6.300506153405251
 30
0.0
  0
VERTEX
  5
B2C
  8
CK_LEVEL_1
 10
82.4572098038549
 20
6.299042640363499
 30
0.0
  0
VERTEX
  5
B2D
  8
CK_LEVEL_1
 10
82.4455322135511
 20
6.298153314019503
 30
0.0
  0
VERTEX
  5
B2E
  8
CK_LEVEL_1
 10
82.43369928184352
 20
6.297852615794236
 30
0.0
  0
VERTEX
  5
B2F
  8
CK_LEVEL_1
 10
81.03078579200412
 20
6.302108315431427
 30
0.0
  0
VERTEX
  5
B30
  8
CK_LEVEL_1
 10
79.54680979942634
 20
3.731786499074556
 30
0.0
  0
VERTEX
  5
B31
  8
CK_LEVEL_1
 10
79.53218489591234
 20
3.70491636657729
 30
0.0
  0
VERTEX
  5
B32
  8
CK_LEVEL_1
 10
79.51890969602266
 20
3.677307058487338
 30
0.0
  0
VERTEX
  5
B33
  8
CK_LEVEL_1
 10
79.507103223829
 20
3.649236882000617
 30
0.0
  0
VERTEX
  5
B34
  8
CK_LEVEL_1
 10
79.49676334300295
 20
3.62076186128794
 30
0.0
  0
VERTEX
  5
B35
  8
CK_LEVEL_1
 10
79.48788769922942
 20
3.59193782943222
 30
0.0
  0
VERTEX
  5
B36
  8
CK_LEVEL_1
 10
79.48047377220269
 20
3.562820422377365
 30
0.0
  0
VERTEX
  5
B37
  8
CK_LEVEL_1
 10
79.47451892539112
 20
3.533465086095214
 30
0.0
  0
VERTEX
  5
B38
  8
CK_LEVEL_1
 10
79.47002044994093
 20
3.503927088664534
 30
0.0
  0
VERTEX
  5
B39
  8
CK_LEVEL_1
 10
79.46697560312664
 20
3.474261539812654
 30
0.0
  0
VERTEX
  5
B3A
  8
CK_LEVEL_1
 10
79.46538164071897
 20
3.444523423608155
 30
0.0
  0
VERTEX
  5
B3B
  8
CK_LEVEL_1
 10
79.46523584056274
 20
3.414767627151798
 30
0.0
  0
VERTEX
  5
B3C
  8
CK_LEVEL_1
 10
79.4665355188226
 20
3.385048979627721
 30
0.0
  0
VERTEX
  5
B3D
  8
CK_LEVEL_1
 10
79.4692780372369
 20
3.3554222880559
 30
0.0
  0
VERTEX
  5
B3E
  8
CK_LEVEL_1
 10
79.47346080188348
 20
3.325942381078187
 30
0.0
  0
VERTEX
  5
B3F
  8
CK_LEVEL_1
 10
79.4790812542335
 20
3.29666413862966
 30
0.0
  0
VERTEX
  5
B40
  8
CK_LEVEL_1
 10
79.48974033330768
 20
3.252820433278446
 30
0.0
  0
SEQEND
  5
E91
  8
CK_LEVEL_1
  0
POLYLINE
  5
111
  8
CK_LEVEL_1
 66
     1
 10
0.0
 20
0.0
 30
0.0
 70
     1
  0
VERTEX
  5
B41
  8
CK_LEVEL_1
 10
86.33587515031164
 20
8.811130006215766
 30
0.0
  0
VERTEX
  5
B42
  8
CK_LEVEL_1
 10
94.72384635677987
 20
8.81118002964062
 30
0.0
  0
VERTEX
  5
B43
  8
CK_LEVEL_1
 10
94.72384635677987
 20
9.045959152979448
 30
0.0
  0
VERTEX
  5
B44
  8
CK_LEVEL_1
 10
94.73447693215817
 20
9.089704353711836
 30
0.0
  0
VERTEX
  5
B45
  8
CK_LEVEL_1
 10
94.74008364637604
 20
9.118892315177659
 30
0.0
  0
VERTEX
  5
B46
  8
CK_LEVEL_1
 10
94.74426461916417
 20
9.148294478133534
 30
0.0
  0
VERTEX
  5
B47
  8
CK_LEVEL_1
 10
94.74701502225683
 20
9.177856235718123
 30
0.0
  0
VERTEX
  5
B48
  8
CK_LEVEL_1
 10
94.74832997901366
 20
9.20752301195425
 30
0.0
  0
VERTEX
  5
B49
  8
CK_LEVEL_1
 10
94.74820455936603
 20
9.237240214113667
 30
0.0
  0
VERTEX
  5
B4A
  8
CK_LEVEL_1
 10
94.74663378517683
 20
9.266953200881785
 30
0.0
  0
VERTEX
  5
B4B
  8
CK_LEVEL_1
 10
94.74361264258263
 20
9.296607240698263
 30
0.0
  0
VERTEX
  5
B4C
  8
CK_LEVEL_1
 10
94.73913610399532
 20
9.326147476638239
 30
0.0
  0
VERTEX
  5
B4D
  8
CK_LEVEL_1
 10
94.73319915672502
 20
9.355518898118403
 30
0.0
  0
VERTEX
  5
B4E
  8
CK_LEVEL_1
 10
94.7257968408326
 20
9.384666310779307
 30
0.0
  0
VERTEX
  5
B4F
  8
CK_LEVEL_1
 10
94.7169242923338
 20
9.413534320827734
 30
0.0
  0
VERTEX
  5
B50
  8
CK_LEVEL_1
 10
94.70657679142423
 20
9.442067327551326
 30
0.0
  0
VERTEX
  5
B51
  8
CK_LEVEL_1
 10
94.69474981402286
 20
9.470209525482955
 30
0.0
  0
VERTEX
  5
B52
  8
CK_LEVEL_1
 10
94.68143908624185
 20
9.497904914933812
 30
0.0
  0
VERTEX
  5
B53
  8
CK_LEVEL_1
 10
94.6667617738261
 20
9.52487473683486
 30
0.0
  0
VERTEX
  5
B54
  8
CK_LEVEL_1
 10
93.18244098377237
 20
12.09579375993822
 30
0.0
  0
VERTEX
  5
B55
  8
CK_LEVEL_1
 10
91.77976916997396
 20
12.09094131207038
 30
0.0
  0
VERTEX
  5
B56
  8
CK_LEVEL_1
 10
91.76793550295432
 20
12.09124226587426
 30
0.0
  0
VERTEX
  5
B57
  8
CK_LEVEL_1
 10
91.75625721771885
 20
12.09213191542845
 30
0.0
  0
VERTEX
  5
B58
  8
CK_LEVEL_1
 10
91.74474875833486
 20
12.09359581591692
 30
0.0
  0
VERTEX
  5
B59
  8
CK_LEVEL_1
 10
91.7334245688697
 20
12.0956195225236
 30
0.0
  0
VERTEX
  5
B5A
  8
CK_LEVEL_1
 10
91.72229909339063
 20
12.09818859043248
 30
0.0
  0
VERTEX
  5
B5B
  8
CK_LEVEL_1
 10
91.71138677596504
 20
12.10128857482749
 30
0.0
  0
VERTEX
  5
B5C
  8
CK_LEVEL_1
 10
91.70070206066019
 20
12.10490503089261
 30
0.0
  0
VERTEX
  5
B5D
  8
CK_LEVEL_1
 10
91.69025939154344
 20
12.10902351381177
 30
0.0
  0
VERTEX
  5
B5E
  8
CK_LEVEL_1
 10
91.68007321268206
 20
12.11362957876896
 30
0.0
  0
VERTEX
  5
B5F
  8
CK_LEVEL_1
 10
91.6701579681434
 20
12.11870878094811
 30
0.0
  0
VERTEX
  5
B60
  8
CK_LEVEL_1
 10
91.66052810199477
 20
12.12424667553319
 30
0.0
  0
VERTEX
  5
B61
  8
CK_LEVEL_1
 10
91.6511980583035
 20
12.13022881770815
 30
0.0
  0
VERTEX
  5
B62
  8
CK_LEVEL_1
 10
91.6421822811369
 20
12.13664076265695
 30
0.0
  0
VERTEX
  5
B63
  8
CK_LEVEL_1
 10
91.63349521456227
 20
12.14346806556355
 30
0.0
  0
VERTEX
  5
B64
  8
CK_LEVEL_1
 10
91.62515130264697
 20
12.15069628161191
 30
0.0
  0
VERTEX
  5
B65
  8
CK_LEVEL_1
 10
91.61716498945827
 20
12.15831096598598
 30
0.0
  0
VERTEX
  5
B66
  8
CK_LEVEL_1
 10
91.60955071906352
 20
12.16629767386972
 30
0.0
  0
VERTEX
  5
B67
  8
CK_LEVEL_1
 10
91.60232293553003
 20
12.17464196044708
 30
0.0
  0
VERTEX
  5
B68
  8
CK_LEVEL_1
 10
91.59549608292512
 20
12.18332938090203
 30
0.0
  0
VERTEX
  5
B69
  8
CK_LEVEL_1
 10
91.58908460531609
 20
12.19234549041852
 30
0.0
  0
VERTEX
  5
B6A
  8
CK_LEVEL_1
 10
91.58310294677028
 20
12.2016758441805
 30
0.0
  0
VERTEX
  5
B6B
  8
CK_LEVEL_1
 10
91.57756555135501
 20
12.21130599737195
 30
0.0
  0
VERTEX
  5
B6C
  8
CK_LEVEL_1
 10
91.57248686313758
 20
12.2212215051768
 30
0.0
  0
VERTEX
  5
B6D
  8
CK_LEVEL_1
 10
91.5678813261853
 20
12.23140792277902
 30
0.0
  0
VERTEX
  5
B6E
  8
CK_LEVEL_1
 10
91.5637633845655
 20
12.24185080536257
 30
0.0
  0
VERTEX
  5
B6F
  8
CK_LEVEL_1
 10
91.56014748234551
 20
12.2525357081114
 30
0.0
  0
VERTEX
  5
B70
  8
CK_LEVEL_1
 10
91.55704806359266
 20
12.26344818620947
 30
0.0
  0
VERTEX
  5
B71
  8
CK_LEVEL_1
 10
91.55447957237423
 20
12.27457379484074
 30
0.0
  0
VERTEX
  5
B72
  8
CK_LEVEL_1
 10
91.55245645275755
 20
12.28589808918916
 30
0.0
  0
VERTEX
  5
B73
  8
CK_LEVEL_1
 10
91.55099314880995
 20
12.2974066244387
 30
0.0
  0
VERTEX
  5
B74
  8
CK_LEVEL_1
 10
91.55010410459874
 20
12.3090849557733
 30
0.0
  0
VERTEX
  5
B75
  8
CK_LEVEL_1
 10
91.54980376419124
 20
12.32091863837693
 30
0.0
  0
VERTEX
  5
B76
  8
CK_LEVEL_1
 10
91.5556819368378
 20
14.91342308091111
 30
0.0
  0
VERTEX
  5
B77
  8
CK_LEVEL_1
 10
91.0583680753468
 20
15.77479595631239
 30
0.0
  0
VERTEX
  5
B78
  8
CK_LEVEL_1
 10
91.04710197011335
 20
15.79356911250505
 30
0.0
  0
VERTEX
  5
B79
  8
CK_LEVEL_1
 10
91.03533586593612
 20
15.81174629548525
 30
0.0
  0
VERTEX
  5
B7A
  8
CK_LEVEL_1
 10
91.0230858918133
 20
15.82932750525298
 30
0.0
  0
VERTEX
  5
B7B
  8
CK_LEVEL_1
 10
91.01036817674306
 20
15.84631274180825
 30
0.0
  0
VERTEX
  5
B7C
  8
CK_LEVEL_1
 10
90.9971988497236
 20
15.86270200515105
 30
0.0
  0
VERTEX
  5
B7D
  8
CK_LEVEL_1
 10
90.9835940397531
 20
15.87849529528139
 30
0.0
  0
VERTEX
  5
B7E
  8
CK_LEVEL_1
 10
90.96956987582976
 20
15.89369261219926
 30
0.0
  0
VERTEX
  5
B7F
  8
CK_LEVEL_1
 10
90.95514248695176
 20
15.90829395590466
 30
0.0
  0
VERTEX
  5
B80
  8
CK_LEVEL_1
 10
90.9403280021173
 20
15.9222993263976
 30
0.0
  0
VERTEX
  5
B81
  8
CK_LEVEL_1
 10
90.92514255032452
 20
15.93570872367808
 30
0.0
  0
VERTEX
  5
B82
  8
CK_LEVEL_1
 10
90.90960226057166
 20
15.94852214774609
 30
0.0
  0
VERTEX
  5
B83
  8
CK_LEVEL_1
 10
90.89372326185686
 20
15.96073959860163
 30
0.0
  0
VERTEX
  5
B84
  8
CK_LEVEL_1
 10
90.87752168317834
 20
15.9723610762447
 30
0.0
  0
VERTEX
  5
B85
  8
CK_LEVEL_1
 10
90.86101365353429
 20
15.98338658067532
 30
0.0
  0
VERTEX
  5
B86
  8
CK_LEVEL_1
 10
90.84421530192289
 20
15.99381611189346
 30
0.0
  0
VERTEX
  5
B87
  8
CK_LEVEL_1
 10
90.8271427573423
 20
16.00364966989914
 30
0.0
  0
VERTEX
  5
B88
  8
CK_LEVEL_1
 10
90.80981214879074
 20
16.01288725469236
 30
0.0
  0
VERTEX
  5
B89
  8
CK_LEVEL_1
 10
90.79223960526636
 20
16.0215288662731
 30
0.0
  0
VERTEX
  5
B8A
  8
CK_LEVEL_1
 10
90.77444125576739
 20
16.02957450464139
 30
0.0
  0
VERTEX
  5
B8B
  8
CK_LEVEL_1
 10
90.756433229292
 20
16.03702416979721
 30
0.0
  0
VERTEX
  5
B8C
  8
CK_LEVEL_1
 10
90.73823165483836
 20
16.04387786174056
 30
0.0
  0
VERTEX
  5
B8D
  8
CK_LEVEL_1
 10
90.71985266140467
 20
16.05013558047145
 30
0.0
  0
VERTEX
  5
B8E
  8
CK_LEVEL_1
 10
90.70131237798913
 20
16.05579732598987
 30
0.0
  0
VERTEX
  5
B8F
  8
CK_LEVEL_1
 10
90.68262693358989
 20
16.06086309829583
 30
0.0
  0
VERTEX
  5
B90
  8
CK_LEVEL_1
 10
90.66381245720515
 20
16.06533289738932
 30
0.0
  0
VERTEX
  5
B91
  8
CK_LEVEL_1
 10
90.64488507783314
 20
16.06920672327034
 30
0.0
  0
VERTEX
  5
B92
  8
CK_LEVEL_1
 10
90.625860924472
 20
16.0724845759389
 30
0.0
  0
VERTEX
  5
B93
  8
CK_LEVEL_1
 10
90.60675612611993
 20
16.07516645539499
 30
0.0
  0
VERTEX
  5
B94
  8
CK_LEVEL_1
 10
90.58758681177511
 20
16.07725236163862
 30
0.0
  0
VERTEX
  5
B95
  8
CK_LEVEL_1
 10
90.56836911043573
 20
16.07874229466978
 30
0.0
  0
VERTEX
  5
B96
  8
CK_LEVEL_1
 10
90.54911915109997
 20
16.07963625448848
 30
0.0
  0
VERTEX
  5
B97
  8
CK_LEVEL_1
 10
90.52985306276604
 20
16.07993424109471
 30
0.0
  0
VERTEX
  5
B98
  8
CK_LEVEL_1
 10
90.5105869744321
 20
16.07963625448848
 30
0.0
  0
VERTEX
  5
B99
  8
CK_LEVEL_1
 10
90.49133701509635
 20
16.07874229466978
 30
0.0
  0
VERTEX
  5
B9A
  8
CK_LEVEL_1
 10
90.47211931375696
 20
16.07725236163862
 30
0.0
  0
VERTEX
  5
B9B
  8
CK_LEVEL_1
 10
90.45294999941214
 20
16.07516645539499
 30
0.0
  0
VERTEX
  5
B9C
  8
CK_LEVEL_1
 10
90.43384520106008
 20
16.07248457593889
 30
0.0
  0
VERTEX
  5
B9D
  8
CK_LEVEL_1
 10
90.41482104769894
 20
16.06920672327033
 30
0.0
  0
VERTEX
  5
B9E
  8
CK_LEVEL_1
 10
90.39589366832692
 20
16.0653328973893
 30
0.0
  0
VERTEX
  5
B9F
  8
CK_LEVEL_1
 10
90.37707919194219
 20
16.0608630982958
 30
0.0
  0
VERTEX
  5
BA0
  8
CK_LEVEL_1
 10
90.35839374754295
 20
16.05579732598985
 30
0.0
  0
VERTEX
  5
BA1
  8
CK_LEVEL_1
 10
90.3398534641274
 20
16.05013558047142
 30
0.0
  0
VERTEX
  5
BA2
  8
CK_LEVEL_1
 10
90.32147447069373
 20
16.04387786174053
 30
0.0
  0
VERTEX
  5
BA3
  8
CK_LEVEL_1
 10
90.30327289624009
 20
16.03702416979717
 30
0.0
  0
VERTEX
  5
BA4
  8
CK_LEVEL_1
 10
90.28526486976469
 20
16.02957450464136
 30
0.0
  0
VERTEX
  5
BA5
  8
CK_LEVEL_1
 10
90.26746652026571
 20
16.02152886627307
 30
0.0
  0
VERTEX
  5
BA6
  8
CK_LEVEL_1
 10
90.24989397674136
 20
16.01288725469232
 30
0.0
  0
VERTEX
  5
BA7
  8
CK_LEVEL_1
 10
90.2325633681898
 20
16.0036496698991
 30
0.0
  0
VERTEX
  5
BA8
  8
CK_LEVEL_1
 10
90.21549082360922
 20
15.99381611189342
 30
0.0
  0
VERTEX
  5
BA9
  8
CK_LEVEL_1
 10
90.19869247199782
 20
15.98338658067527
 30
0.0
  0
VERTEX
  5
BAA
  8
CK_LEVEL_1
 10
90.18218444235376
 20
15.97236107624466
 30
0.0
  0
VERTEX
  5
BAB
  8
CK_LEVEL_1
 10
90.16598286367525
 20
15.96073959860158
 30
0.0
  0
VERTEX
  5
BAC
  8
CK_LEVEL_1
 10
90.15010386496047
 20
15.94852214774603
 30
0.0
  0
VERTEX
  5
BAD
  8
CK_LEVEL_1
 10
90.13456357520761
 20
15.93570872367802
 30
0.0
  0
VERTEX
  5
BAE
  8
CK_LEVEL_1
 10
90.11937812341483
 20
15.92229932639755
 30
0.0
  0
VERTEX
  5
BAF
  8
CK_LEVEL_1
 10
90.10456363858036
 20
15.9082939559046
 30
0.0
  0
VERTEX
  5
BB0
  8
CK_LEVEL_1
 10
90.09013624970237
 20
15.8936926121992
 30
0.0
  0
VERTEX
  5
BB1
  8
CK_LEVEL_1
 10
90.07611208577902
 20
15.87849529528133
 30
0.0
  0
VERTEX
  5
BB2
  8
CK_LEVEL_1
 10
90.06250727580853
 20
15.86270200515099
 30
0.0
  0
VERTEX
  5
BB3
  8
CK_LEVEL_1
 10
90.04933794878907
 20
15.84631274180818
 30
0.0
  0
VERTEX
  5
BB4
  8
CK_LEVEL_1
 10
90.03662023371884
 20
15.82932750525292
 30
0.0
  0
VERTEX
  5
BB5
  8
CK_LEVEL_1
 10
90.02437025959601
 20
15.81174629548518
 30
0.0
  0
VERTEX
  5
BB6
  8
CK_LEVEL_1
 10
90.01260415541879
 20
15.79356911250498
 30
0.0
  0
VERTEX
  5
BB7
  8
CK_LEVEL_1
 10
90.00133805018532
 20
15.77479595631232
 30
0.0
  0
VERTEX
  5
BB8
  8
CK_LEVEL_1
 10
89.49752767530403
 20
14.90217078963707
 30
0.0
  0
VERTEX
  5
BB9
  8
CK_LEVEL_1
 10
89.50980376419123
 20
12.32089375413952
 30
0.0
  0
VERTEX
  5
BBA
  8
CK_LEVEL_1
 10
89.5095021797218
 20
12.30906084498637
 30
0.0
  0
VERTEX
  5
BBB
  8
CK_LEVEL_1
 10
89.50861197876984
 20
12.29738332132275
 30
0.0
  0
VERTEX
  5
BBC
  8
CK_LEVEL_1
 10
89.50714760383795
 20
12.28587562456961
 30
0.0
  0
VERTEX
  5
BBD
  8
CK_LEVEL_1
 10
89.50512349742876
 20
12.27455219614795
 30
0.0
  0
VERTEX
  5
BBE
  8
CK_LEVEL_1
 10
89.50255410204488
 20
12.26342747747873
 30
0.0
  0
VERTEX
  5
BBF
  8
CK_LEVEL_1
 10
89.49945386018896
 20
12.25251590998292
 30
0.0
  0
VERTEX
  5
BC0
  8
CK_LEVEL_1
 10
89.49583721436363
 20
12.24183193508151
 30
0.0
  0
VERTEX
  5
BC1
  8
CK_LEVEL_1
 10
89.49171860707148
 20
12.23138999419545
 30
0.0
  0
VERTEX
  5
BC2
  8
CK_LEVEL_1
 10
89.48711248081517
 20
12.22120452874574
 30
0.0
  0
VERTEX
  5
BC3
  8
CK_LEVEL_1
 10
89.4820332780973
 20
12.21128998015333
 30
0.0
  0
VERTEX
  5
BC4
  8
CK_LEVEL_1
 10
89.47649544142052
 20
12.20166078983921
 30
0.0
  0
VERTEX
  5
BC5
  8
CK_LEVEL_1
 10
89.47051341328745
 20
12.19233139922434
 30
0.0
  0
VERTEX
  5
BC6
  8
CK_LEVEL_1
 10
89.4641016362007
 20
12.18331624972971
 30
0.0
  0
VERTEX
  5
BC7
  8
CK_LEVEL_1
 10
89.45727455266291
 20
12.17462978277628
 30
0.0
  0
VERTEX
  5
BC8
  8
CK_LEVEL_1
 10
89.45004660517668
 20
12.16628643978502
 30
0.0
  0
VERTEX
  5
BC9
  8
CK_LEVEL_1
 10
89.44243223624468
 20
12.15830066217692
 30
0.0
  0
VERTEX
  5
BCA
  8
CK_LEVEL_1
 10
89.43444588836951
 20
12.15068689137295
 30
0.0
  0
VERTEX
  5
BCB
  8
CK_LEVEL_1
 10
89.42610200405379
 20
12.14345956879407
 30
0.0
  0
VERTEX
  5
BCC
  8
CK_LEVEL_1
 10
89.41741502580015
 20
12.13663313586127
 30
0.0
  0
VERTEX
  5
BCD
  8
CK_LEVEL_1
 10
89.40839939611125
 20
12.13022203399551
 30
0.0
  0
VERTEX
  5
BCE
  8
CK_LEVEL_1
 10
89.39906955748967
 20
12.12424070461777
 30
0.0
  0
VERTEX
  5
BCF
  8
CK_LEVEL_1
 10
89.38943995243805
 20
12.11870358914903
 30
0.0
  0
VERTEX
  5
BD0
  8
CK_LEVEL_1
 10
89.37952502345902
 20
12.11362512901025
 30
0.0
  0
VERTEX
  5
BD1
  8
CK_LEVEL_1
 10
89.36933921305521
 20
12.10901976562241
 30
0.0
  0
VERTEX
  5
BD2
  8
CK_LEVEL_1
 10
89.35889696372924
 20
12.10490194040649
 30
0.0
  0
VERTEX
  5
BD3
  8
CK_LEVEL_1
 10
89.34821271798373
 20
12.10128609478345
 30
0.0
  0
VERTEX
  5
BD4
  8
CK_LEVEL_1
 10
89.3373009183213
 20
12.09818667017427
 30
0.0
  0
VERTEX
  5
BD5
  8
CK_LEVEL_1
 10
89.3261760072446
 20
12.09561810799993
 30
0.0
  0
VERTEX
  5
BD6
  8
CK_LEVEL_1
 10
89.31485242725624
 20
12.0935948496814
 30
0.0
  0
VERTEX
  5
BD7
  8
CK_LEVEL_1
 10
89.30334462085885
 20
12.09213133663965
 30
0.0
  0
VERTEX
  5
BD8
  8
CK_LEVEL_1
 10
89.29166703055506
 20
12.09124201029565
 30
0.0
  0
VERTEX
  5
BD9
  8
CK_LEVEL_1
 10
89.27983409884747
 20
12.09094131207038
 30
0.0
  0
VERTEX
  5
BDA
  8
CK_LEVEL_1
 10
87.87692060900808
 20
12.09519701170757
 30
0.0
  0
VERTEX
  5
BDB
  8
CK_LEVEL_1
 10
86.3929446164303
 20
9.524875195350702
 30
0.0
  0
VERTEX
  5
BDC
  8
CK_LEVEL_1
 10
86.3783197129163
 20
9.498005062853437
 30
0.0
  0
VERTEX
  5
BDD
  8
CK_LEVEL_1
 10
86.36504451302662
 20
9.470395754763485
 30
0.0
  0
VERTEX
  5
BDE
  8
CK_LEVEL_1
 10
86.35323804083296
 20
9.442325578276764
 30
0.0
  0
VERTEX
  5
BDF
  8
CK_LEVEL_1
 10
86.34289816000691
 20
9.413850557564087
 30
0.0
  0
VERTEX
  5
BE0
  8
CK_LEVEL_1
 10
86.33402251623338
 20
9.385026525708367
 30
0.0
  0
VERTEX
  5
BE1
  8
CK_LEVEL_1
 10
86.32660858920664
 20
9.355909118653512
 30
0.0
  0
VERTEX
  5
BE2
  8
CK_LEVEL_1
 10
86.32065374239508
 20
9.326553782371361
 30
0.0
  0
VERTEX
  5
BE3
  8
CK_LEVEL_1
 10
86.31615526694489
 20
9.297015784940681
 30
0.0
  0
VERTEX
  5
BE4
  8
CK_LEVEL_1
 10
86.3131104201306
 20
9.2673502360888
 30
0.0
  0
VERTEX
  5
BE5
  8
CK_LEVEL_1
 10
86.31151645772293
 20
9.237612119884302
 30
0.0
  0
VERTEX
  5
BE6
  8
CK_LEVEL_1
 10
86.3113706575667
 20
9.207856323427945
 30
0.0
  0
VERTEX
  5
BE7
  8
CK_LEVEL_1
 10
86.31267033582655
 20
9.178137675903868
 30
0.0
  0
VERTEX
  5
BE8
  8
CK_LEVEL_1
 10
86.31541285424086
 20
9.148510984332047
 30
0.0
  0
VERTEX
  5
BE9
  8
CK_LEVEL_1
 10
86.31959561888743
 20
9.119031077354334
 30
0.0
  0
VERTEX
  5
BEA
  8
CK_LEVEL_1
 10
86.32521607123746
 20
9.089752834905807
 30
0.0
  0
VERTEX
  5
BEB
  8
CK_LEVEL_1
 10
86.33587515031164
 20
9.045909129554593
 30
0.0
  0
SEQEND
  5
E92
  8
CK_LEVEL_1
  0
POLYLINE
  5
112
  8
CK_LEVEL_1
 66
     1
 10
0.0
 20
0.0
 30
0.0
 70
     1
  0
VERTEX
  5
BEC
  8
CK_LEVEL_1
 10
86.33609683083344
 20
17.76416364726071
 30
0.0
  0
VERTEX
  5
BED
  8
CK_LEVEL_1
 10
94.72406803730168
 20
17.76421367068557
 30
0.0
  0
VERTEX
  5
BEE
  8
CK_LEVEL_1
 10
94.72406803730168
 20
17.99899279402439
 30
0.0
  0
VERTEX
  5
BEF
  8
CK_LEVEL_1
 10
94.73469861267998
 20
18.04273799475678
 30
0.0
  0
VERTEX
  5
BF0
  8
CK_LEVEL_1
 10
94.74030532689784
 20
18.0719259562226
 30
0.0
  0
VERTEX
  5
BF1
  8
CK_LEVEL_1
 10
94.74448629968597
 20
18.10132811917848
 30
0.0
  0
VERTEX
  5
BF2
  8
CK_LEVEL_1
 10
94.74723670277864
 20
18.13088987676307
 30
0.0
  0
VERTEX
  5
BF3
  8
CK_LEVEL_1
 10
94.74855165953547
 20
18.16055665299919
 30
0.0
  0
VERTEX
  5
BF4
  8
CK_LEVEL_1
 10
94.74842623988783
 20
18.19027385515861
 30
0.0
  0
VERTEX
  5
BF5
  8
CK_LEVEL_1
 10
94.74685546569863
 20
18.21998684192673
 30
0.0
  0
VERTEX
  5
BF6
  8
CK_LEVEL_1
 10
94.74383432310444
 20
18.24964088174321
 30
0.0
  0
VERTEX
  5
BF7
  8
CK_LEVEL_1
 10
94.73935778451713
 20
18.27918111768318
 30
0.0
  0
VERTEX
  5
BF8
  8
CK_LEVEL_1
 10
94.73342083724683
 20
18.30855253916335
 30
0.0
  0
VERTEX
  5
BF9
  8
CK_LEVEL_1
 10
94.7260185213544
 20
18.33769995182425
 30
0.0
  0
VERTEX
  5
BFA
  8
CK_LEVEL_1
 10
94.7171459728556
 20
18.36656796187268
 30
0.0
  0
VERTEX
  5
BFB
  8
CK_LEVEL_1
 10
94.70679847194603
 20
18.39510096859627
 30
0.0
  0
VERTEX
  5
BFC
  8
CK_LEVEL_1
 10
94.69497149454466
 20
18.4232431665279
 30
0.0
  0
VERTEX
  5
BFD
  8
CK_LEVEL_1
 10
94.68166076676366
 20
18.45093855597876
 30
0.0
  0
VERTEX
  5
BFE
  8
CK_LEVEL_1
 10
94.6669834543479
 20
18.47790837787981
 30
0.0
  0
VERTEX
  5
BFF
  8
CK_LEVEL_1
 10
93.18266266429417
 20
21.04882740098317
 30
0.0
  0
VERTEX
  5
C00
  8
CK_LEVEL_1
 10
91.77999085049576
 20
21.04397495311533
 30
0.0
  0
VERTEX
  5
C01
  8
CK_LEVEL_1
 10
91.76815718347612
 20
21.0442759069192
 30
0.0
  0
VERTEX
  5
C02
  8
CK_LEVEL_1
 10
91.75647889824066
 20
21.0451655564734
 30
0.0
  0
VERTEX
  5
C03
  8
CK_LEVEL_1
 10
91.74497043885667
 20
21.04662945696186
 30
0.0
  0
VERTEX
  5
C04
  8
CK_LEVEL_1
 10
91.7336462493915
 20
21.04865316356855
 30
0.0
  0
VERTEX
  5
C05
  8
CK_LEVEL_1
 10
91.72252077391244
 20
21.05122223147742
 30
0.0
  0
VERTEX
  5
C06
  8
CK_LEVEL_1
 10
91.71160845648684
 20
21.05432221587244
 30
0.0
  0
VERTEX
  5
C07
  8
CK_LEVEL_1
 10
91.700923741182
 20
21.05793867193755
 30
0.0
  0
VERTEX
  5
C08
  8
CK_LEVEL_1
 10
91.69048107206524
 20
21.06205715485672
 30
0.0
  0
VERTEX
  5
C09
  8
CK_LEVEL_1
 10
91.68029489320386
 20
21.0666632198139
 30
0.0
  0
VERTEX
  5
C0A
  8
CK_LEVEL_1
 10
91.6703796486652
 20
21.07174242199305
 30
0.0
  0
VERTEX
  5
C0B
  8
CK_LEVEL_1
 10
91.66074978251658
 20
21.07728031657813
 30
0.0
  0
VERTEX
  5
C0C
  8
CK_LEVEL_1
 10
91.65141973882531
 20
21.08326245875309
 30
0.0
  0
VERTEX
  5
C0D
  8
CK_LEVEL_1
 10
91.6424039616587
 20
21.0896744037019
 30
0.0
  0
VERTEX
  5
C0E
  8
CK_LEVEL_1
 10
91.63371689508408
 20
21.0965017066085
 30
0.0
  0
VERTEX
  5
C0F
  8
CK_LEVEL_1
 10
91.62537298316877
 20
21.10372992265685
 30
0.0
  0
VERTEX
  5
C10
  8
CK_LEVEL_1
 10
91.61738666998008
 20
21.11134460703092
 30
0.0
  0
VERTEX
  5
C11
  8
CK_LEVEL_1
 10
91.60977239958532
 20
21.11933131491466
 30
0.0
  0
VERTEX
  5
C12
  8
CK_LEVEL_1
 10
91.60254461605183
 20
21.12767560149203
 30
0.0
  0
VERTEX
  5
C13
  8
CK_LEVEL_1
 10
91.59571776344693
 20
21.13636302194698
 30
0.0
  0
VERTEX
  5
C14
  8
CK_LEVEL_1
 10
91.58930628583789
 20
21.14537913146346
 30
0.0
  0
VERTEX
  5
C15
  8
CK_LEVEL_1
 10
91.58332462729209
 20
21.15470948522545
 30
0.0
  0
VERTEX
  5
C16
  8
CK_LEVEL_1
 10
91.57778723187681
 20
21.16433963841689
 30
0.0
  0
VERTEX
  5
C17
  8
CK_LEVEL_1
 10
91.57270854365939
 20
21.17425514622175
 30
0.0
  0
VERTEX
  5
C18
  8
CK_LEVEL_1
 10
91.5681030067071
 20
21.18444156382397
 30
0.0
  0
VERTEX
  5
C19
  8
CK_LEVEL_1
 10
91.56398506508731
 20
21.19488444640751
 30
0.0
  0
VERTEX
  5
C1A
  8
CK_LEVEL_1
 10
91.56036916286732
 20
21.20556934915635
 30
0.0
  0
VERTEX
  5
C1B
  8
CK_LEVEL_1
 10
91.55726974411446
 20
21.21648182725442
 30
0.0
  0
VERTEX
  5
C1C
  8
CK_LEVEL_1
 10
91.55470125289604
 20
21.22760743588568
 30
0.0
  0
VERTEX
  5
C1D
  8
CK_LEVEL_1
 10
91.55267813327936
 20
21.23893173023411
 30
0.0
  0
VERTEX
  5
C1E
  8
CK_LEVEL_1
 10
91.55121482933176
 20
21.25044026548364
 30
0.0
  0
VERTEX
  5
C1F
  8
CK_LEVEL_1
 10
91.55032578512055
 20
21.26211859681825
 30
0.0
  0
VERTEX
  5
C20
  8
CK_LEVEL_1
 10
91.55002544471304
 20
21.27395227942187
 30
0.0
  0
VERTEX
  5
C21
  8
CK_LEVEL_1
 10
91.5559036173596
 20
23.86645672195606
 30
0.0
  0
VERTEX
  5
C22
  8
CK_LEVEL_1
 10
91.05858975586861
 20
24.72782959735733
 30
0.0
  0
VERTEX
  5
C23
  8
CK_LEVEL_1
 10
91.04732365063515
 20
24.74660275355
 30
0.0
  0
VERTEX
  5
C24
  8
CK_LEVEL_1
 10
91.03555754645792
 20
24.7647799365302
 30
0.0
  0
VERTEX
  5
C25
  8
CK_LEVEL_1
 10
91.0233075723351
 20
24.78236114629793
 30
0.0
  0
VERTEX
  5
C26
  8
CK_LEVEL_1
 10
91.01058985726486
 20
24.79934638285319
 30
0.0
  0
VERTEX
  5
C27
  8
CK_LEVEL_1
 10
90.9974205302454
 20
24.815735646196
 30
0.0
  0
VERTEX
  5
C28
  8
CK_LEVEL_1
 10
90.9838157202749
 20
24.83152893632634
 30
0.0
  0
VERTEX
  5
C29
  8
CK_LEVEL_1
 10
90.96979155635157
 20
24.84672625324421
 30
0.0
  0
VERTEX
  5
C2A
  8
CK_LEVEL_1
 10
90.95536416747356
 20
24.86132759694961
 30
0.0
  0
VERTEX
  5
C2B
  8
CK_LEVEL_1
 10
90.9405496826391
 20
24.87533296744255
 30
0.0
  0
VERTEX
  5
C2C
  8
CK_LEVEL_1
 10
90.92536423084633
 20
24.88874236472302
 30
0.0
  0
VERTEX
  5
C2D
  8
CK_LEVEL_1
 10
90.90982394109346
 20
24.90155578879104
 30
0.0
  0
VERTEX
  5
C2E
  8
CK_LEVEL_1
 10
90.89394494237867
 20
24.91377323964657
 30
0.0
  0
VERTEX
  5
C2F
  8
CK_LEVEL_1
 10
90.87774336370015
 20
24.92539471728966
 30
0.0
  0
VERTEX
  5
C30
  8
CK_LEVEL_1
 10
90.86123533405609
 20
24.93642022172027
 30
0.0
  0
VERTEX
  5
C31
  8
CK_LEVEL_1
 10
90.84443698244469
 20
24.94684975293841
 30
0.0
  0
VERTEX
  5
C32
  8
CK_LEVEL_1
 10
90.8273644378641
 20
24.95668331094409
 30
0.0
  0
VERTEX
  5
C33
  8
CK_LEVEL_1
 10
90.81003382931254
 20
24.96592089573731
 30
0.0
  0
VERTEX
  5
C34
  8
CK_LEVEL_1
 10
90.79246128578816
 20
24.97456250731805
 30
0.0
  0
VERTEX
  5
C35
  8
CK_LEVEL_1
 10
90.77466293628919
 20
24.98260814568633
 30
0.0
  0
VERTEX
  5
C36
  8
CK_LEVEL_1
 10
90.7566549098138
 20
24.99005781084215
 30
0.0
  0
VERTEX
  5
C37
  8
CK_LEVEL_1
 10
90.73845333536016
 20
24.99691150278551
 30
0.0
  0
VERTEX
  5
C38
  8
CK_LEVEL_1
 10
90.72007434192648
 20
25.00316922151639
 30
0.0
  0
VERTEX
  5
C39
  8
CK_LEVEL_1
 10
90.70153405851093
 20
25.00883096703482
 30
0.0
  0
VERTEX
  5
C3A
  8
CK_LEVEL_1
 10
90.68284861411169
 20
25.01389673934077
 30
0.0
  0
VERTEX
  5
C3B
  8
CK_LEVEL_1
 10
90.66403413772696
 20
25.01836653843426
 30
0.0
  0
VERTEX
  5
C3C
  8
CK_LEVEL_1
 10
90.64510675835494
 20
25.02224036431529
 30
0.0
  0
VERTEX
  5
C3D
  8
CK_LEVEL_1
 10
90.6260826049938
 20
25.02551821698385
 30
0.0
  0
VERTEX
  5
C3E
  8
CK_LEVEL_1
 10
90.60697780664174
 20
25.02820009643994
 30
0.0
  0
VERTEX
  5
C3F
  8
CK_LEVEL_1
 10
90.58780849229692
 20
25.03028600268357
 30
0.0
  0
VERTEX
  5
C40
  8
CK_LEVEL_1
 10
90.56859079095753
 20
25.03177593571473
 30
0.0
  0
VERTEX
  5
C41
  8
CK_LEVEL_1
 10
90.54934083162178
 20
25.03266989553343
 30
0.0
  0
VERTEX
  5
C42
  8
CK_LEVEL_1
 10
90.53007474328784
 20
25.03296788213966
 30
0.0
  0
VERTEX
  5
C43
  8
CK_LEVEL_1
 10
90.5108086549539
 20
25.03266989553343
 30
0.0
  0
VERTEX
  5
C44
  8
CK_LEVEL_1
 10
90.49155869561815
 20
25.03177593571473
 30
0.0
  0
VERTEX
  5
C45
  8
CK_LEVEL_1
 10
90.47234099427877
 20
25.03028600268356
 30
0.0
  0
VERTEX
  5
C46
  8
CK_LEVEL_1
 10
90.45317167993394
 20
25.02820009643993
 30
0.0
  0
VERTEX
  5
C47
  8
CK_LEVEL_1
 10
90.43406688158188
 20
25.02551821698384
 30
0.0
  0
VERTEX
  5
C48
  8
CK_LEVEL_1
 10
90.41504272822074
 20
25.02224036431527
 30
0.0
  0
VERTEX
  5
C49
  8
CK_LEVEL_1
 10
90.39611534884872
 20
25.01836653843425
 30
0.0
  0
VERTEX
  5
C4A
  8
CK_LEVEL_1
 10
90.37730087246399
 20
25.01389673934075
 30
0.0
  0
VERTEX
  5
C4B
  8
CK_LEVEL_1
 10
90.35861542806475
 20
25.00883096703479
 30
0.0
  0
VERTEX
  5
C4C
  8
CK_LEVEL_1
 10
90.3400751446492
 20
25.00316922151637
 30
0.0
  0
VERTEX
  5
C4D
  8
CK_LEVEL_1
 10
90.32169615121553
 20
24.99691150278548
 30
0.0
  0
VERTEX
  5
C4E
  8
CK_LEVEL_1
 10
90.30349457676189
 20
24.99005781084212
 30
0.0
  0
VERTEX
  5
C4F
  8
CK_LEVEL_1
 10
90.28548655028649
 20
24.9826081456863
 30
0.0
  0
VERTEX
  5
C50
  8
CK_LEVEL_1
 10
90.26768820078752
 20
24.97456250731802
 30
0.0
  0
VERTEX
  5
C51
  8
CK_LEVEL_1
 10
90.25011565726317
 20
24.96592089573727
 30
0.0
  0
VERTEX
  5
C52
  8
CK_LEVEL_1
 10
90.2327850487116
 20
24.95668331094405
 30
0.0
  0
VERTEX
  5
C53
  8
CK_LEVEL_1
 10
90.21571250413102
 20
24.94684975293837
 30
0.0
  0
VERTEX
  5
C54
  8
CK_LEVEL_1
 10
90.19891415251962
 20
24.93642022172022
 30
0.0
  0
VERTEX
  5
C55
  8
CK_LEVEL_1
 10
90.18240612287556
 20
24.92539471728961
 30
0.0
  0
VERTEX
  5
C56
  8
CK_LEVEL_1
 10
90.16620454419706
 20
24.91377323964652
 30
0.0
  0
VERTEX
  5
C57
  8
CK_LEVEL_1
 10
90.15032554548227
 20
24.90155578879098
 30
0.0
  0
VERTEX
  5
C58
  8
CK_LEVEL_1
 10
90.13478525572941
 20
24.88874236472297
 30
0.0
  0
VERTEX
  5
C59
  8
CK_LEVEL_1
 10
90.11959980393664
 20
24.8753329674425
 30
0.0
  0
VERTEX
  5
C5A
  8
CK_LEVEL_1
 10
90.10478531910216
 20
24.86132759694955
 30
0.0
  0
VERTEX
  5
C5B
  8
CK_LEVEL_1
 10
90.09035793022417
 20
24.84672625324414
 30
0.0
  0
VERTEX
  5
C5C
  8
CK_LEVEL_1
 10
90.07633376630082
 20
24.83152893632627
 30
0.0
  0
VERTEX
  5
C5D
  8
CK_LEVEL_1
 10
90.06272895633033
 20
24.81573564619593
 30
0.0
  0
VERTEX
  5
C5E
  8
CK_LEVEL_1
 10
90.04955962931088
 20
24.79934638285313
 30
0.0
  0
VERTEX
  5
C5F
  8
CK_LEVEL_1
 10
90.03684191424064
 20
24.78236114629787
 30
0.0
  0
VERTEX
  5
C60
  8
CK_LEVEL_1
 10
90.02459194011782
 20
24.76477993653013
 30
0.0
  0
VERTEX
  5
C61
  8
CK_LEVEL_1
 10
90.01282583594059
 20
24.74660275354993
 30
0.0
  0
VERTEX
  5
C62
  8
CK_LEVEL_1
 10
90.00155973070713
 20
24.72782959735726
 30
0.0
  0
VERTEX
  5
C63
  8
CK_LEVEL_1
 10
89.49774935582583
 20
23.85520443068201
 30
0.0
  0
VERTEX
  5
C64
  8
CK_LEVEL_1
 10
89.51002544471304
 20
21.27392739518447
 30
0.0
  0
VERTEX
  5
C65
  8
CK_LEVEL_1
 10
89.50972386024361
 20
21.26209448603132
 30
0.0
  0
VERTEX
  5
C66
  8
CK_LEVEL_1
 10
89.50883365929164
 20
21.25041696236769
 30
0.0
  0
VERTEX
  5
C67
  8
CK_LEVEL_1
 10
89.50736928435975
 20
21.23890926561456
 30
0.0
  0
VERTEX
  5
C68
  8
CK_LEVEL_1
 10
89.50534517795056
 20
21.22758583719289
 30
0.0
  0
VERTEX
  5
C69
  8
CK_LEVEL_1
 10
89.50277578256669
 20
21.21646111852367
 30
0.0
  0
VERTEX
  5
C6A
  8
CK_LEVEL_1
 10
89.49967554071077
 20
21.20554955102786
 30
0.0
  0
VERTEX
  5
C6B
  8
CK_LEVEL_1
 10
89.49605889488544
 20
21.19486557612645
 30
0.0
  0
VERTEX
  5
C6C
  8
CK_LEVEL_1
 10
89.49194028759328
 20
21.1844236352404
 30
0.0
  0
VERTEX
  5
C6D
  8
CK_LEVEL_1
 10
89.48733416133697
 20
21.17423816979068
 30
0.0
  0
VERTEX
  5
C6E
  8
CK_LEVEL_1
 10
89.48225495861911
 20
21.16432362119827
 30
0.0
  0
VERTEX
  5
C6F
  8
CK_LEVEL_1
 10
89.47671712194233
 20
21.15469443088415
 30
0.0
  0
VERTEX
  5
C70
  8
CK_LEVEL_1
 10
89.47073509380925
 20
21.14536504026928
 30
0.0
  0
VERTEX
  5
C71
  8
CK_LEVEL_1
 10
89.4643233167225
 20
21.13634989077465
 30
0.0
  0
VERTEX
  5
C72
  8
CK_LEVEL_1
 10
89.45749623318471
 20
21.12766342382122
 30
0.0
  0
VERTEX
  5
C73
  8
CK_LEVEL_1
 10
89.45026828569848
 20
21.11932008082997
 30
0.0
  0
VERTEX
  5
C74
  8
CK_LEVEL_1
 10
89.44265391676649
 20
21.11133430322187
 30
0.0
  0
VERTEX
  5
C75
  8
CK_LEVEL_1
 10
89.43466756889131
 20
21.10372053241789
 30
0.0
  0
VERTEX
  5
C76
  8
CK_LEVEL_1
 10
89.42632368457559
 20
21.09649320983901
 30
0.0
  0
VERTEX
  5
C77
  8
CK_LEVEL_1
 10
89.41763670632196
 20
21.08966677690621
 30
0.0
  0
VERTEX
  5
C78
  8
CK_LEVEL_1
 10
89.40862107663305
 20
21.08325567504045
 30
0.0
  0
VERTEX
  5
C79
  8
CK_LEVEL_1
 10
89.39929123801147
 20
21.07727434566272
 30
0.0
  0
VERTEX
  5
C7A
  8
CK_LEVEL_1
 10
89.38966163295986
 20
21.07173723019397
 30
0.0
  0
VERTEX
  5
C7B
  8
CK_LEVEL_1
 10
89.37974670398083
 20
21.06665877005519
 30
0.0
  0
VERTEX
  5
C7C
  8
CK_LEVEL_1
 10
89.36956089357702
 20
21.06205340666735
 30
0.0
  0
VERTEX
  5
C7D
  8
CK_LEVEL_1
 10
89.35911864425104
 20
21.05793558145143
 30
0.0
  0
VERTEX
  5
C7E
  8
CK_LEVEL_1
 10
89.34843439850553
 20
21.05431973582839
 30
0.0
  0
VERTEX
  5
C7F
  8
CK_LEVEL_1
 10
89.33752259884311
 20
21.05122031121922
 30
0.0
  0
VERTEX
  5
C80
  8
CK_LEVEL_1
 10
89.3263976877664
 20
21.04865174904488
 30
0.0
  0
VERTEX
  5
C81
  8
CK_LEVEL_1
 10
89.31507410777805
 20
21.04662849072634
 30
0.0
  0
VERTEX
  5
C82
  8
CK_LEVEL_1
 10
89.30356630138066
 20
21.04516497768459
 30
0.0
  0
VERTEX
  5
C83
  8
CK_LEVEL_1
 10
89.29188871107687
 20
21.0442756513406
 30
0.0
  0
VERTEX
  5
C84
  8
CK_LEVEL_1
 10
89.28005577936928
 20
21.04397495311533
 30
0.0
  0
VERTEX
  5
C85
  8
CK_LEVEL_1
 10
87.87714228952989
 20
21.04823065275252
 30
0.0
  0
VERTEX
  5
C86
  8
CK_LEVEL_1
 10
86.3931662969521
 20
18.47790883639565
 30
0.0
  0
VERTEX
  5
C87
  8
CK_LEVEL_1
 10
86.3785413934381
 20
18.45103870389838
 30
0.0
  0
VERTEX
  5
C88
  8
CK_LEVEL_1
 10
86.36526619354842
 20
18.42342939580843
 30
0.0
  0
VERTEX
  5
C89
  8
CK_LEVEL_1
 10
86.35345972135477
 20
18.39535921932171
 30
0.0
  0
VERTEX
  5
C8A
  8
CK_LEVEL_1
 10
86.34311984052871
 20
18.36688419860903
 30
0.0
  0
VERTEX
  5
C8B
  8
CK_LEVEL_1
 10
86.33424419675518
 20
18.33806016675331
 30
0.0
  0
VERTEX
  5
C8C
  8
CK_LEVEL_1
 10
86.32683026972845
 20
18.30894275969846
 30
0.0
  0
VERTEX
  5
C8D
  8
CK_LEVEL_1
 10
86.32087542291688
 20
18.27958742341631
 30
0.0
  0
VERTEX
  5
C8E
  8
CK_LEVEL_1
 10
86.3163769474667
 20
18.25004942598563
 30
0.0
  0
VERTEX
  5
C8F
  8
CK_LEVEL_1
 10
86.3133321006524
 20
18.22038387713375
 30
0.0
  0
VERTEX
  5
C90
  8
CK_LEVEL_1
 10
86.31173813824473
 20
18.19064576092925
 30
0.0
  0
VERTEX
  5
C91
  8
CK_LEVEL_1
 10
86.3115923380885
 20
18.16088996447289
 30
0.0
  0
VERTEX
  5
C92
  8
CK_LEVEL_1
 10
86.31289201634836
 20
18.13117131694881
 30
0.0
  0
VERTEX
  5
C93
  8
CK_LEVEL_1
 10
86.31563453476267
 20
18.10154462537699
 30
0.0
  0
VERTEX
  5
C94
  8
CK_LEVEL_1
 10
86.31981729940924
 20
18.07206471839928
 30
0.0
  0
VERTEX
  5
C95
  8
CK_LEVEL_1
 10
86.32543775175927
 20
18.04278647595075
 30
0.0
  0
VERTEX
  5
C96
  8
CK_LEVEL_1
 10
86.33609683083344
 20
17.99894277059954
 30
0.0
  0
SEQEND
  5
E93
  8
CK_LEVEL_1
  0
POLYLINE
  5
113
  8
CK_LEVEL_1
 66
     1
 10
0.0
 20
0.0
 30
0.0
 70
     1
  0
VERTEX
  5
C97
  8
CK_LEVEL_1
 10
44.50401585266412
 20
44.46920962036296
 30
0.0
  0
VERTEX
  5
C98
  8
CK_LEVEL_1
 10
42.48401585266418
 20
44.46920962036296
 30
0.0
 42
1.0
  0
VERTEX
  5
C99
  8
CK_LEVEL_1
 10
42.48401585266418
 20
44.21920962036297
 30
0.0
  0
VERTEX
  5
C9A
  8
CK_LEVEL_1
 10
42.48401585266418
 20
43.98920962036298
 30
0.0
 42
1.0
  0
VERTEX
  5
C9B
  8
CK_LEVEL_1
 10
42.48401585266418
 20
43.73920962036298
 30
0.0
  0
VERTEX
  5
C9C
  8
CK_LEVEL_1
 10
44.50401585266412
 20
43.73920962036298
 30
0.0
 42
1.0
  0
VERTEX
  5
C9D
  8
CK_LEVEL_1
 10
44.50401585266412
 20
43.98920962036298
 30
0.0
  0
VERTEX
  5
C9E
  8
CK_LEVEL_1
 10
44.50401585266412
 20
44.21920962036297
 30
0.0
 42
1.0
  0
SEQEND
  5
E94
  8
CK_LEVEL_1
  0
POLYLINE
  5
114
  8
CK_LEVEL_1
 66
     1
 10
0.0
 20
0.0
 30
0.0
 70
     1
  0
VERTEX
  5
C9F
  8
CK_LEVEL_1
 10
42.48401585266418
 20
39.69920962036291
 30
0.0
  0
VERTEX
  5
CA0
  8
CK_LEVEL_1
 10
44.50401585266412
 20
39.69920962036291
 30
0.0
 42
-1.0
  0
VERTEX
  5
CA1
  8
CK_LEVEL_1
 10
44.50401585266412
 20
39.44920962036291
 30
0.0
  0
VERTEX
  5
CA2
  8
CK_LEVEL_1
 10
44.50401585266412
 20
39.2192096203629
 30
0.0
 42
-1.0
  0
VERTEX
  5
CA3
  8
CK_LEVEL_1
 10
44.50401585266412
 20
38.9692096203629
 30
0.0
  0
VERTEX
  5
CA4
  8
CK_LEVEL_1
 10
42.48401585266418
 20
38.9692096203629
 30
0.0
 42
-1.0
  0
VERTEX
  5
CA5
  8
CK_LEVEL_1
 10
42.48401585266418
 20
39.2192096203629
 30
0.0
  0
VERTEX
  5
CA6
  8
CK_LEVEL_1
 10
42.48401585266418
 20
39.44920962036291
 30
0.0
 42
-1.0
  0
SEQEND
  5
E95
  8
CK_LEVEL_1
  0
POLYLINE
  5
115
  8
CK_LEVEL_1
 66
     1
 10
0.0
 20
0.0
 30
0.0
 70
     1
  0
VERTEX
  5
CA7
  8
CK_LEVEL_1
 10
31.50401585266446
 20
44.46920962036296
 30
0.0
  0
VERTEX
  5
CA8
  8
CK_LEVEL_1
 10
29.48401585266448
 20
44.46920962036296
 30
0.0
 42
1.0
  0
VERTEX
  5
CA9
  8
CK_LEVEL_1
 10
29.48401585266448
 20
44.21920962036297
 30
0.0
  0
VERTEX
  5
CAA
  8
CK_LEVEL_1
 10
29.48401585266448
 20
43.98920962036298
 30
0.0
 42
1.0
  0
VERTEX
  5
CAB
  8
CK_LEVEL_1
 10
29.48401585266448
 20
43.73920962036298
 30
0.0
  0
VERTEX
  5
CAC
  8
CK_LEVEL_1
 10
31.50401585266446
 20
43.73920962036298
 30
0.0
 42
1.0
  0
VERTEX
  5
CAD
  8
CK_LEVEL_1
 10
31.50401585266446
 20
43.98920962036298
 30
0.0
  0
VERTEX
  5
CAE
  8
CK_LEVEL_1
 10
31.50401585266446
 20
44.21920962036297
 30
0.0
 42
1.0
  0
SEQEND
  5
E96
  8
CK_LEVEL_1
  0
POLYLINE
  5
116
  8
CK_LEVEL_1
 66
     1
 10
0.0
 20
0.0
 30
0.0
 70
     1
  0
VERTEX
  5
CAF
  8
CK_LEVEL_1
 10
31.50401585266446
 20
39.69920962036291
 30
0.0
  0
VERTEX
  5
CB0
  8
CK_LEVEL_1
 10
29.48401585266448
 20
39.69920962036291
 30
0.0
 42
1.0
  0
VERTEX
  5
CB1
  8
CK_LEVEL_1
 10
29.48401585266448
 20
39.44920962036291
 30
0.0
  0
VERTEX
  5
CB2
  8
CK_LEVEL_1
 10
29.48401585266448
 20
39.2192096203629
 30
0.0
 42
1.0
  0
VERTEX
  5
CB3
  8
CK_LEVEL_1
 10
29.48401585266448
 20
38.9692096203629
 30
0.0
  0
VERTEX
  5
CB4
  8
CK_LEVEL_1
 10
31.50401585266446
 20
38.9692096203629
 30
0.0
 42
1.0
  0
VERTEX
  5
CB5
  8
CK_LEVEL_1
 10
31.50401585266446
 20
39.2192096203629
 30
0.0
  0
VERTEX
  5
CB6
  8
CK_LEVEL_1
 10
31.50401585266446
 20
39.44920962036291
 30
0.0
 42
1.0
  0
SEQEND
  5
E97
  8
CK_LEVEL_1
  0
POLYLINE
  5
117
  8
CK_LEVEL_1
 66
     1
 10
0.0
 20
0.0
 30
0.0
 70
     1
  0
VERTEX
  5
CB7
  8
CK_LEVEL_1
 10
17.98401585266452
 20
44.46920962036296
 30
0.0
  0
VERTEX
  5
CB8
  8
CK_LEVEL_1
 10
20.00401585266451
 20
44.46920962036296
 30
0.0
 42
-1.0
  0
VERTEX
  5
CB9
  8
CK_LEVEL_1
 10
20.00401585266451
 20
44.21920962036297
 30
0.0
  0
VERTEX
  5
CBA
  8
CK_LEVEL_1
 10
20.00401585266451
 20
43.98920962036298
 30
0.0
 42
-1.0
  0
VERTEX
  5
CBB
  8
CK_LEVEL_1
 10
20.00401585266451
 20
43.73920962036298
 30
0.0
  0
VERTEX
  5
CBC
  8
CK_LEVEL_1
 10
17.98401585266452
 20
43.73920962036298
 30
0.0
 42
-1.0
  0
VERTEX
  5
CBD
  8
CK_LEVEL_1
 10
17.98401585266452
 20
43.98920962036298
 30
0.0
  0
VERTEX
  5
CBE
  8
CK_LEVEL_1
 10
17.98401585266452
 20
44.21920962036297
 30
0.0
 42
-1.0
  0
SEQEND
  5
E98
  8
CK_LEVEL_1
  0
POLYLINE
  5
118
  8
CK_LEVEL_1
 66
     1
 10
0.0
 20
0.0
 30
0.0
 70
     1
  0
VERTEX
  5
CBF
  8
CK_LEVEL_1
 10
20.00401585266451
 20
39.44920962036291
 30
0.0
  0
VERTEX
  5
CC0
  8
CK_LEVEL_1
 10
20.00401585266451
 20
39.2192096203629
 30
0.0
 42
-1.0
  0
VERTEX
  5
CC1
  8
CK_LEVEL_1
 10
20.00401585266451
 20
38.9692096203629
 30
0.0
  0
VERTEX
  5
CC2
  8
CK_LEVEL_1
 10
17.98401585266452
 20
38.9692096203629
 30
0.0
 42
-1.0
  0
VERTEX
  5
CC3
  8
CK_LEVEL_1
 10
17.98401585266452
 20
39.2192096203629
 30
0.0
  0
VERTEX
  5
CC4
  8
CK_LEVEL_1
 10
17.98401585266452
 20
39.44920962036291
 30
0.0
 42
-1.0
  0
VERTEX
  5
CC5
  8
CK_LEVEL_1
 10
17.98401585266452
 20
39.69920962036291
 30
0.0
  0
VERTEX
  5
CC6
  8
CK_LEVEL_1
 10
20.00401585266451
 20
39.69920962036291
 30
0.0
 42
-1.0
  0
SEQEND
  5
E99
  8
CK_LEVEL_1
  0
POLYLINE
  5
119
  8
CK_LEVEL_1
 66
     1
 10
0.0
 20
0.0
 30
0.0
 70
     1
  0
VERTEX
  5
CC7
  8
CK_LEVEL_1
 10
4.984015852664438
 20
43.73920962036298
 30
0.0
  0
VERTEX
  5
CC8
  8
CK_LEVEL_1
 10
7.004015852664461
 20
43.73920962036298
 30
0.0
 42
1.0
  0
VERTEX
  5
CC9
  8
CK_LEVEL_1
 10
7.004015852664461
 20
43.98920962036298
 30
0.0
  0
VERTEX
  5
CCA
  8
CK_LEVEL_1
 10
7.004015852664461
 20
44.21920962036297
 30
0.0
 42
1.0
  0
VERTEX
  5
CCB
  8
CK_LEVEL_1
 10
7.004015852664461
 20
44.46920962036296
 30
0.0
  0
VERTEX
  5
CCC
  8
CK_LEVEL_1
 10
4.984015852664438
 20
44.46920962036296
 30
0.0
 42
1.0
  0
VERTEX
  5
CCD
  8
CK_LEVEL_1
 10
4.984015852664438
 20
44.21920962036297
 30
0.0
  0
VERTEX
  5
CCE
  8
CK_LEVEL_1
 10
4.984015852664438
 20
43.98920962036298
 30
0.0
 42
1.0
  0
SEQEND
  5
E9A
  8
CK_LEVEL_1
  0
POLYLINE
  5
11A
  8
CK_LEVEL_1
 66
     1
 10
0.0
 20
0.0
 30
0.0
 70
     1
  0
VERTEX
  5
CCF
  8
CK_LEVEL_1
 10
4.984015852664438
 20
39.69920962036291
 30
0.0
  0
VERTEX
  5
CD0
  8
CK_LEVEL_1
 10
7.004015852664461
 20
39.69920962036291
 30
0.0
 42
-1.0
  0
VERTEX
  5
CD1
  8
CK_LEVEL_1
 10
7.004015852664461
 20
39.44920962036291
 30
0.0
  0
VERTEX
  5
CD2
  8
CK_LEVEL_1
 10
7.004015852664461
 20
39.2192096203629
 30
0.0
 42
-1.0
  0
VERTEX
  5
CD3
  8
CK_LEVEL_1
 10
7.004015852664461
 20
38.9692096203629
 30
0.0
  0
VERTEX
  5
CD4
  8
CK_LEVEL_1
 10
4.984015852664438
 20
38.9692096203629
 30
0.0
 42
-1.0
  0
VERTEX
  5
CD5
  8
CK_LEVEL_1
 10
4.984015852664438
 20
39.2192096203629
 30
0.0
  0
VERTEX
  5
CD6
  8
CK_LEVEL_1
 10
4.984015852664438
 20
39.44920962036291
 30
0.0
 42
-1.0
  0
SEQEND
  5
E9B
  8
CK_LEVEL_1
  0
POLYLINE
  5
11B
  8
CK_LEVEL_1
 66
     1
 10
0.0
 20
0.0
 30
0.0
 70
     1
  0
VERTEX
  5
CD7
  8
CK_LEVEL_1
 10
1.238289178683894
 20
13.50885141346581
 30
0.0
  0
VERTEX
  5
CD8
  8
CK_LEVEL_1
 10
1.238289178683894
 20
21.25885141346585
 30
0.0
  0
VERTEX
  5
CD9
  8
CK_LEVEL_1
 10
9.98828917868385
 20
21.25885141346585
 30
0.0
  0
VERTEX
  5
CDA
  8
CK_LEVEL_1
 10
9.98828917868385
 20
13.50885141346581
 30
0.0
  0
SEQEND
  5
E9C
  8
CK_LEVEL_1
  0
POLYLINE
  5
11C
  8
CK_LEVEL_1
 66
     1
 10
0.0
 20
0.0
 30
0.0
 70
     1
  0
VERTEX
  5
CDB
  8
CK_LEVEL_1
 10
37.65090673354231
 20
13.50885141346581
 30
0.0
  0
VERTEX
  5
CDC
  8
CK_LEVEL_1
 10
37.65090673354231
 20
21.25885141346585
 30
0.0
  0
VERTEX
  5
CDD
  8
CK_LEVEL_1
 10
46.40090673354227
 20
21.25885141346585
 30
0.0
  0
VERTEX
  5
CDE
  8
CK_LEVEL_1
 10
46.40090673354227
 20
13.50885141346581
 30
0.0
  0
SEQEND
  5
E9D
  8
CK_LEVEL_1
  0
POLYLINE
  5
11D
  8
CK_LEVEL_1
 66
     1
 10
0.0
 20
0.0
 30
0.0
 70
     1
  0
VERTEX
  5
CDF
  8
CK_LEVEL_1
 10
2.843839520376171
 20
35.93377074888964
 30
0.0
  0
VERTEX
  5
CE0
  8
CK_LEVEL_1
 10
2.843839520376171
 20
33.93377074888961
 30
0.0
 42
0.4142135623730443
  0
VERTEX
  5
CE1
  8
CK_LEVEL_1
 10
3.093839520376175
 20
33.68377074888961
 30
0.0
  0
VERTEX
  5
CE2
  8
CK_LEVEL_1
 10
46.0938395203759
 20
33.68377074888961
 30
0.0
 42
0.4142135623717706
  0
VERTEX
  5
CE3
  8
CK_LEVEL_1
 10
46.34383952037589
 20
33.93377074888961
 30
0.0
  0
VERTEX
  5
CE4
  8
CK_LEVEL_1
 10
46.34383952037589
 20
35.93377074888964
 30
0.0
  0
VERTEX
  5
CE5
  8
CK_LEVEL_1
 10
44.52061621567258
 20
35.93377074888964
 30
0.0
 42
-1.0
  0
VERTEX
  5
CE6
  8
CK_LEVEL_1
 10
44.34383952037595
 20
36.1105474441863
 30
0.0
  0
VERTEX
  5
CE7
  8
CK_LEVEL_1
 10
44.34383952037595
 20
36.43377074888966
 30
0.0
  0
VERTEX
  5
CE8
  8
CK_LEVEL_1
 10
42.34383952037601
 20
36.43377074888966
 30
0.0
  0
VERTEX
  5
CE9
  8
CK_LEVEL_1
 10
42.34383952037601
 20
36.1105474441863
 30
0.0
 42
-1.0
  0
VERTEX
  5
CEA
  8
CK_LEVEL_1
 10
42.16706282507937
 20
35.93377074888964
 30
0.0
  0
VERTEX
  5
CEB
  8
CK_LEVEL_1
 10
31.52061621567291
 20
35.93377074888964
 30
0.0
 42
-1.0
  0
VERTEX
  5
CEC
  8
CK_LEVEL_1
 10
31.34383952037628
 20
36.1105474441863
 30
0.0
  0
VERTEX
  5
CED
  8
CK_LEVEL_1
 10
31.34383952037628
 20
36.43377074888966
 30
0.0
  0
VERTEX
  5
CEE
  8
CK_LEVEL_1
 10
29.34383952037629
 20
36.43377074888966
 30
0.0
  0
VERTEX
  5
CEF
  8
CK_LEVEL_1
 10
29.34383952037629
 20
36.1105474441863
 30
0.0
 42
-1.0
  0
VERTEX
  5
CF0
  8
CK_LEVEL_1
 10
29.16706282507965
 20
35.93377074888964
 30
0.0
  0
VERTEX
  5
CF1
  8
CK_LEVEL_1
 10
20.02061621567293
 20
35.93377074888964
 30
0.0
 42
-1.0
  0
VERTEX
  5
CF2
  8
CK_LEVEL_1
 10
19.84383952037629
 20
36.1105474441863
 30
0.0
  0
VERTEX
  5
CF3
  8
CK_LEVEL_1
 10
19.84383952037629
 20
36.43377074888966
 30
0.0
  0
VERTEX
  5
CF4
  8
CK_LEVEL_1
 10
17.8438395203763
 20
36.43377074888966
 30
0.0
  0
VERTEX
  5
CF5
  8
CK_LEVEL_1
 10
17.8438395203763
 20
36.1105474441863
 30
0.0
 42
-1.0
  0
VERTEX
  5
CF6
  8
CK_LEVEL_1
 10
17.66706282507965
 20
35.93377074888964
 30
0.0
  0
VERTEX
  5
CF7
  8
CK_LEVEL_1
 10
7.020616215672861
 20
35.93377074888964
 30
0.0
 42
-1.0
  0
VERTEX
  5
CF8
  8
CK_LEVEL_1
 10
6.843839520376222
 20
36.1105474441863
 30
0.0
  0
VERTEX
  5
CF9
  8
CK_LEVEL_1
 10
6.843839520376222
 20
36.43377074888966
 30
0.0
  0
VERTEX
  5
CFA
  8
CK_LEVEL_1
 10
4.843839520376198
 20
36.43377074888966
 30
0.0
  0
VERTEX
  5
CFB
  8
CK_LEVEL_1
 10
4.843839520376198
 20
36.1105474441863
 30
0.0
 42
-1.0
  0
VERTEX
  5
CFC
  8
CK_LEVEL_1
 10
4.667062825079566
 20
35.93377074888964
 30
0.0
  0
SEQEND
  5
E9E
  8
CK_LEVEL_1
  0
POLYLINE
  5
11E
  8
CK_LEVEL_1
 66
     1
 10
0.0
 20
0.0
 30
0.0
 70
     1
  0
VERTEX
  5
CFD
  8
CK_LEVEL_1
 10
2.994015852664418
 20
38.7192096203629
 30
0.0
  0
VERTEX
  5
CFE
  8
CK_LEVEL_1
 10
46.49401585266408
 20
38.7192096203629
 30
0.0
  0
VERTEX
  5
CFF
  8
CK_LEVEL_1
 10
46.49401585266408
 20
44.71920962036296
 30
0.0
  0
VERTEX
  5
D00
  8
CK_LEVEL_1
 10
2.994015852664418
 20
44.71920962036296
 30
0.0
  0
SEQEND
  5
E9F
  8
CK_LEVEL_1
  0
POLYLINE
  5
11F
  8
CK_LEVEL_1
 66
     1
 10
0.0
 20
0.0
 30
0.0
 70
     1
  0
VERTEX
  5
D01
  8
CK_LEVEL_1
 10
6.641316555671708
 20
4.303375447949197
 30
0.0
  0
VERTEX
  5
D02
  8
CK_LEVEL_1
 10
1.535278996866356
 20
4.303375447949197
 30
0.0
 42
0.414213562373068
  0
VERTEX
  5
D03
  8
CK_LEVEL_1
 10
1.285278996866356
 20
4.053375447949197
 30
0.0
  0
VERTEX
  5
D04
  8
CK_LEVEL_1
 10
1.285278996866356
 20
1.553375447949183
 30
0.0
 42
0.4142135623730924
  0
VERTEX
  5
D05
  8
CK_LEVEL_1
 10
1.535278996866356
 20
1.303375447949183
 30
0.0
  0
VERTEX
  5
D06
  8
CK_LEVEL_1
 10
3.285278996866408
 20
1.303375447949183
 30
0.0
  0
VERTEX
  5
D07
  8
CK_LEVEL_1
 10
3.285278996866408
 20
1.626598752652544
 30
0.0
 42
-1.0
  0
VERTEX
  5
D08
  8
CK_LEVEL_1
 10
3.462055692163039
 20
1.803375447949192
 30
0.0
  0
VERTEX
  5
D09
  8
CK_LEVEL_1
 10
4.548502301569783
 20
1.803375447949192
 30
0.0
 42
-1.0
  0
VERTEX
  5
D0A
  8
CK_LEVEL_1
 10
4.725278996866394
 20
1.626598752652544
 30
0.0
  0
VERTEX
  5
D0B
  8
CK_LEVEL_1
 10
4.725278996866394
 20
1.303375447949183
 30
0.0
  0
VERTEX
  5
D0C
  8
CK_LEVEL_1
 10
23.31527899686654
 20
1.303375447949183
 30
0.0
  0
VERTEX
  5
D0D
  8
CK_LEVEL_1
 10
23.31527899686654
 20
1.626598752652544
 30
0.0
 42
-1.0
  0
VERTEX
  5
D0E
  8
CK_LEVEL_1
 10
23.49205569216318
 20
1.803375447949192
 30
0.0
  0
VERTEX
  5
D0F
  8
CK_LEVEL_1
 10
24.57850230156992
 20
1.803375447949192
 30
0.0
 42
-1.0
  0
VERTEX
  5
D10
  8
CK_LEVEL_1
 10
24.75527899686656
 20
1.626598752652544
 30
0.0
  0
VERTEX
  5
D11
  8
CK_LEVEL_1
 10
24.75527899686656
 20
1.303375447949183
 30
0.0
  0
VERTEX
  5
D12
  8
CK_LEVEL_1
 10
43.3452789968665
 20
1.303375447949183
 30
0.0
  0
VERTEX
  5
D13
  8
CK_LEVEL_1
 10
43.3452789968665
 20
1.626598752652544
 30
0.0
 42
-1.0
  0
VERTEX
  5
D14
  8
CK_LEVEL_1
 10
43.52205569216313
 20
1.803375447949192
 30
0.0
  0
VERTEX
  5
D15
  8
CK_LEVEL_1
 10
44.60850230156984
 20
1.803375447949192
 30
0.0
 42
-1.0
  0
VERTEX
  5
D16
  8
CK_LEVEL_1
 10
44.78527899686648
 20
1.626598752652544
 30
0.0
  0
VERTEX
  5
D17
  8
CK_LEVEL_1
 10
44.78527899686648
 20
1.303375447949183
 30
0.0
  0
VERTEX
  5
D18
  8
CK_LEVEL_1
 10
46.53527899686647
 20
1.303375447949183
 30
0.0
 42
0.4142135623711019
  0
VERTEX
  5
D19
  8
CK_LEVEL_1
 10
46.78527899686647
 20
1.553375447949183
 30
0.0
  0
VERTEX
  5
D1A
  8
CK_LEVEL_1
 10
46.78527899686647
 20
4.053375447949197
 30
0.0
 42
0.4142135623717103
  0
VERTEX
  5
D1B
  8
CK_LEVEL_1
 10
46.53527899686647
 20
4.303375447949197
 30
0.0
  0
VERTEX
  5
D1C
  8
CK_LEVEL_1
 10
41.4292414380612
 20
4.303375447949197
 30
0.0
 42
-0.2673458031353387
  0
VERTEX
  5
D1D
  8
CK_LEVEL_1
 10
41.21301716336703
 20
4.42788814567133
 30
0.0
  0
VERTEX
  5
D1E
  8
CK_LEVEL_1
 10
25.10754083036601
 20
32.17886275022724
 30
0.0
 42
0.2673458031359041
  0
VERTEX
  5
D1F
  8
CK_LEVEL_1
 10
24.89131655567182
 20
32.30337544794936
 30
0.0
  0
VERTEX
  5
D20
  8
CK_LEVEL_1
 10
23.17924143806127
 20
32.30337544794936
 30
0.0
 42
0.2673458031354876
  0
VERTEX
  5
D21
  8
CK_LEVEL_1
 10
22.96301716336711
 20
32.17886275022724
 30
0.0
  0
VERTEX
  5
D22
  8
CK_LEVEL_1
 10
6.857540830365894
 20
4.42788814567133
 30
0.0
 42
-0.267345803134228
  0
SEQEND
  5
EA0
  8
CK_LEVEL_1
  0
POLYLINE
  5
120
  8
CK_LEVEL_1
 66
     1
 10
0.0
 20
0.0
 30
0.0
 70
     1
  0
VERTEX
  5
D23
  8
CK_LEVEL_1
 10
25.03527899686655
 20
4.553375447949199
 30
0.0
  0
VERTEX
  5
D24
  8
CK_LEVEL_1
 10
25.03527899686655
 20
16.73044744794926
 30
0.0
 42
-0.4142135623739165
  0
VERTEX
  5
D25
  8
CK_LEVEL_1
 10
25.28527899686655
 20
16.98044744794926
 30
0.0
  0
VERTEX
  5
D26
  8
CK_LEVEL_1
 10
31.47167355286555
 20
16.98044744794926
 30
0.0
 42
-0.2673458076515929
  0
VERTEX
  5
D27
  8
CK_LEVEL_1
 10
31.68789782967537
 20
16.85593474658172
 30
0.0
  0
VERTEX
  5
D28
  8
CK_LEVEL_1
 10
38.75494826951571
 20
4.678862746581656
 30
0.0
 42
-0.578101247447448
  0
VERTEX
  5
D29
  8
CK_LEVEL_1
 10
38.5387239927059
 20
4.303375447949197
 30
0.0
  0
VERTEX
  5
D2A
  8
CK_LEVEL_1
 10
25.28527899686655
 20
4.303375447949197
 30
0.0
 42
-0.4142135623738916
  0
SEQEND
  5
EA1
  8
CK_LEVEL_1
  0
POLYLINE
  5
121
  8
CK_LEVEL_1
 66
     1
 10
0.0
 20
0.0
 30
0.0
 70
     1
  0
VERTEX
  5
D2B
  8
CK_LEVEL_1
 10
16.38266016405773
 20
16.85593474658172
 30
0.0
  0
VERTEX
  5
D2C
  8
CK_LEVEL_1
 10
9.315609724217275
 20
4.678862746581663
 30
0.0
 42
0.578101247447213
  0
VERTEX
  5
D2D
  8
CK_LEVEL_1
 10
9.531834001027107
 20
4.303375447949197
 30
0.0
  0
VERTEX
  5
D2E
  8
CK_LEVEL_1
 10
22.78527899686654
 20
4.303375447949197
 30
0.0
 42
0.4142135623732166
  0
VERTEX
  5
D2F
  8
CK_LEVEL_1
 10
23.03527899686657
 20
4.553375447949199
 30
0.0
  0
VERTEX
  5
D30
  8
CK_LEVEL_1
 10
23.03527899686657
 20
16.73044744794926
 30
0.0
 42
0.4142135623734475
  0
VERTEX
  5
D31
  8
CK_LEVEL_1
 10
22.78527899686654
 20
16.98044744794926
 30
0.0
  0
VERTEX
  5
D32
  8
CK_LEVEL_1
 10
16.59888444086754
 20
16.98044744794926
 30
0.0
 42
0.2673458076491258
  0
SEQEND
  5
EA2
  8
CK_LEVEL_1
  0
POLYLINE
  5
122
  8
CK_LEVEL_1
 66
     1
 10
0.0
 20
0.0
 30
0.0
 70
     1
  0
VERTEX
  5
D33
  8
CK_LEVEL_1
 10
22.56905472674965
 20
27.51556823462894
 30
0.0
  0
VERTEX
  5
D34
  8
CK_LEVEL_1
 10
17.83355275768225
 20
19.35593475811412
 30
0.0
 42
0.5781012652370806
  0
VERTEX
  5
D35
  8
CK_LEVEL_1
 10
18.04977702779917
 20
18.98044744794927
 30
0.0
  0
VERTEX
  5
D36
  8
CK_LEVEL_1
 10
22.78527899686654
 20
18.98044744794927
 30
0.0
 42
0.4142135623731775
  0
VERTEX
  5
D37
  8
CK_LEVEL_1
 10
23.03527899686657
 20
19.23044744794927
 30
0.0
  0
VERTEX
  5
D38
  8
CK_LEVEL_1
 10
23.03527899686657
 20
27.39008092446412
 30
0.0
 42
0.766432783581653
  0
SEQEND
  5
EA3
  8
CK_LEVEL_1
  0
POLYLINE
  5
123
  8
CK_LEVEL_1
 66
     1
 10
0.0
 20
0.0
 30
0.0
 70
     1
  0
VERTEX
  5
D39
  8
CK_LEVEL_1
 10
25.03527899686655
 20
27.39008092446412
 30
0.0
  0
VERTEX
  5
D3A
  8
CK_LEVEL_1
 10
25.03527899686655
 20
19.23044744794927
 30
0.0
 42
0.4142135623734191
  0
VERTEX
  5
D3B
  8
CK_LEVEL_1
 10
25.28527899686655
 20
18.98044744794927
 30
0.0
  0
VERTEX
  5
D3C
  8
CK_LEVEL_1
 10
30.02078096593392
 20
18.98044744794927
 30
0.0
 42
0.5781012652363309
  0
VERTEX
  5
D3D
  8
CK_LEVEL_1
 10
30.23700523605084
 20
19.35593475811412
 30
0.0
  0
VERTEX
  5
D3E
  8
CK_LEVEL_1
 10
25.50150326698348
 20
27.51556823462894
 30
0.0
 42
0.7664327835817061
  0
SEQEND
  5
EA4
  8
CK_LEVEL_1
  0
POLYLINE
  5
124
  8
CK_LEVEL_1
 66
     1
 10
0.0
 20
0.0
 30
0.0
 70
     1
  0
VERTEX
  5
D3F
  8
CK_LEVEL_1
 10
61.18559835301188
 20
14.42055409097342
 30
0.0
  0
VERTEX
  5
D40
  8
CK_LEVEL_1
 10
58.5342529555697
 20
9.852082021534569
 30
0.0
 42
0.5781012530645524
  0
VERTEX
  5
D41
  8
CK_LEVEL_1
 10
58.75047723026388
 20
9.476594719256692
 30
0.0
  0
VERTEX
  5
D42
  8
CK_LEVEL_1
 10
66.19769169214725
 20
9.47659471925672
 30
0.0
 42
0.5781012530795141
  0
VERTEX
  5
D43
  8
CK_LEVEL_1
 10
66.41391596684143
 20
9.852082021534597
 30
0.0
  0
VERTEX
  5
D44
  8
CK_LEVEL_1
 10
63.76257056939939
 20
14.42055409097316
 30
0.0
 42
0.2673458031358774
  0
VERTEX
  5
D45
  8
CK_LEVEL_1
 10
63.33012202001049
 20
14.66957948641777
 30
0.0
  0
VERTEX
  5
D46
  8
CK_LEVEL_1
 10
61.61804690240068
 20
14.66957948641777
 30
0.0
 42
0.2673458031354673
  0
SEQEND
  5
EA5
  8
CK_LEVEL_1
  0
POLYLINE
  5
125
  8
CK_LEVEL_1
 66
     1
 10
0.0
 20
0.0
 30
0.0
 70
     1
  0
VERTEX
  5
D47
  8
CK_LEVEL_1
 10
61.18559835301188
 20
8.353594843324736
 30
0.0
  0
VERTEX
  5
D48
  8
CK_LEVEL_1
 10
58.5342529555697
 20
3.785122773885885
 30
0.0
 42
0.5781012530645524
  0
VERTEX
  5
D49
  8
CK_LEVEL_1
 10
58.75047723026388
 20
3.409635471608008
 30
0.0
  0
VERTEX
  5
D4A
  8
CK_LEVEL_1
 10
66.19769169214725
 20
3.409635471608036
 30
0.0
 42
0.5781012530795141
  0
VERTEX
  5
D4B
  8
CK_LEVEL_1
 10
66.41391596684143
 20
3.785122773885913
 30
0.0
  0
VERTEX
  5
D4C
  8
CK_LEVEL_1
 10
63.76257056939939
 20
8.35359484332448
 30
0.0
 42
0.2673458031358774
  0
VERTEX
  5
D4D
  8
CK_LEVEL_1
 10
63.33012202001049
 20
8.602620238769086
 30
0.0
  0
VERTEX
  5
D4E
  8
CK_LEVEL_1
 10
61.61804690240068
 20
8.602620238769086
 30
0.0
 42
0.2673458031354673
  0
SEQEND
  5
EA6
  8
CK_LEVEL_1
  0
POLYLINE
  5
126
  8
CK_LEVEL_1
 66
     1
 10
0.0
 20
0.0
 30
0.0
 70
     1
  0
VERTEX
  5
D4F
  8
CK_LEVEL_1
 10
52.5984511981528
 20
8.353594843324736
 30
0.0
  0
VERTEX
  5
D50
  8
CK_LEVEL_1
 10
49.94710580071062
 20
3.785122773885885
 30
0.0
 42
0.5781012530645524
  0
VERTEX
  5
D51
  8
CK_LEVEL_1
 10
50.1633300754048
 20
3.409635471608008
 30
0.0
  0
VERTEX
  5
D52
  8
CK_LEVEL_1
 10
57.61054453728816
 20
3.409635471608036
 30
0.0
 42
0.5781012530795141
  0
VERTEX
  5
D53
  8
CK_LEVEL_1
 10
57.82676881198235
 20
3.785122773885913
 30
0.0
  0
VERTEX
  5
D54
  8
CK_LEVEL_1
 10
55.1754234145403
 20
8.35359484332448
 30
0.0
 42
0.2673458031358774
  0
VERTEX
  5
D55
  8
CK_LEVEL_1
 10
54.74297486515141
 20
8.602620238769086
 30
0.0
  0
VERTEX
  5
D56
  8
CK_LEVEL_1
 10
53.0308997475416
 20
8.602620238769086
 30
0.0
 42
0.2673458031354673
  0
SEQEND
  5
EA7
  8
CK_LEVEL_1
  0
POLYLINE
  5
127
  8
CK_LEVEL_1
 66
     1
 10
0.0
 20
0.0
 30
0.0
 70
     1
  0
VERTEX
  5
D57
  8
CK_LEVEL_1
 10
52.02067221483662
 20
14.42055409097342
 30
0.0
  0
VERTEX
  5
D58
  8
CK_LEVEL_1
 10
49.36932681739444
 20
9.852082021534569
 30
0.0
 42
0.5781012530645524
  0
VERTEX
  5
D59
  8
CK_LEVEL_1
 10
49.58555109208862
 20
9.476594719256692
 30
0.0
  0
VERTEX
  5
D5A
  8
CK_LEVEL_1
 10
57.03276555397198
 20
9.47659471925672
 30
0.0
 42
0.5781012530795141
  0
VERTEX
  5
D5B
  8
CK_LEVEL_1
 10
57.24898982866617
 20
9.852082021534597
 30
0.0
  0
VERTEX
  5
D5C
  8
CK_LEVEL_1
 10
54.59764443122413
 20
14.42055409097316
 30
0.0
 42
0.2673458031358774
  0
VERTEX
  5
D5D
  8
CK_LEVEL_1
 10
54.16519588183523
 20
14.66957948641777
 30
0.0
  0
VERTEX
  5
D5E
  8
CK_LEVEL_1
 10
52.45312076422542
 20
14.66957948641777
 30
0.0
 42
0.2673458031354673
  0
SEQEND
  5
EA8
  8
CK_LEVEL_1
  0
POLYLINE
  5
128
  8
CK_LEVEL_1
 66
     1
 10
0.0
 20
0.0
 30
0.0
 70
     1
  0
VERTEX
  5
D5F
  8
CK_LEVEL_1
 10
74.97295437730517
 20
15.20427503952781
 30
0.0
  0
VERTEX
  5
D60
  8
CK_LEVEL_1
 10
71.36468673475902
 20
21.45397792372455
 30
0.0
 42
0.5773502691860283
  0
VERTEX
  5
D61
  8
CK_LEVEL_1
 10
70.77531042764038
 20
21.45397792372455
 30
0.0
  0
VERTEX
  5
D62
  8
CK_LEVEL_1
 10
67.16704278509428
 20
15.20427503952781
 30
0.0
 42
0.5773502691813766
  0
VERTEX
  5
D63
  8
CK_LEVEL_1
 10
67.46173093865356
 20
14.6938601851744
 30
0.0
  0
VERTEX
  5
D64
  8
CK_LEVEL_1
 10
74.67826622374585
 20
14.6938601851744
 30
0.0
 42
0.5773502691973786
  0
SEQEND
  5
EA9
  8
CK_LEVEL_1
  0
POLYLINE
  5
129
  8
CK_LEVEL_1
 66
     1
 10
0.0
 20
0.0
 30
0.0
 70
     1
  0
VERTEX
  5
D65
  8
CK_LEVEL_1
 10
76.96279077253389
 20
15.20427503952781
 30
0.0
  0
VERTEX
  5
D66
  8
CK_LEVEL_1
 10
80.57105841508005
 20
21.45397792372455
 30
0.0
 42
-0.5773502691860283
  0
VERTEX
  5
D67
  8
CK_LEVEL_1
 10
81.16043472219869
 20
21.45397792372455
 30
0.0
  0
VERTEX
  5
D68
  8
CK_LEVEL_1
 10
84.76870236474478
 20
15.20427503952781
 30
0.0
 42
-0.5773502691813766
  0
VERTEX
  5
D69
  8
CK_LEVEL_1
 10
84.4740142111855
 20
14.6938601851744
 30
0.0
  0
VERTEX
  5
D6A
  8
CK_LEVEL_1
 10
77.25747892609321
 20
14.6938601851744
 30
0.0
 42
-0.5773502691973786
  0
SEQEND
  5
EAA
  8
CK_LEVEL_1
  0
POLYLINE
  5
12A
  8
CK_LEVEL_1
 66
     1
 10
0.0
 20
0.0
 30
0.0
 70
     1
  0
VERTEX
  5
D6B
  8
CK_LEVEL_1
 10
74.97295437730517
 20
23.6306073279291
 30
0.0
  0
VERTEX
  5
D6C
  8
CK_LEVEL_1
 10
71.36468673475902
 20
29.88031021212583
 30
0.0
 42
0.5773502691860283
  0
VERTEX
  5
D6D
  8
CK_LEVEL_1
 10
70.77531042764038
 20
29.88031021212583
 30
0.0
  0
VERTEX
  5
D6E
  8
CK_LEVEL_1
 10
67.16704278509428
 20
23.6306073279291
 30
0.0
 42
0.5773502691813766
  0
VERTEX
  5
D6F
  8
CK_LEVEL_1
 10
67.46173093865356
 20
23.12019247357568
 30
0.0
  0
VERTEX
  5
D70
  8
CK_LEVEL_1
 10
74.67826622374585
 20
23.12019247357568
 30
0.0
 42
0.5773502691973786
  0
SEQEND
  5
EAB
  8
CK_LEVEL_1
  0
POLYLINE
  5
12B
  8
CK_LEVEL_1
 66
     1
 10
0.0
 20
0.0
 30
0.0
 70
     1
  0
VERTEX
  5
D71
  8
CK_LEVEL_1
 10
76.96279077253389
 20
23.6306073279291
 30
0.0
  0
VERTEX
  5
D72
  8
CK_LEVEL_1
 10
80.57105841508005
 20
29.88031021212583
 30
0.0
 42
-0.5773502691860283
  0
VERTEX
  5
D73
  8
CK_LEVEL_1
 10
81.16043472219869
 20
29.88031021212583
 30
0.0
  0
VERTEX
  5
D74
  8
CK_LEVEL_1
 10
84.76870236474478
 20
23.6306073279291
 30
0.0
 42
-0.5773502691813766
  0
VERTEX
  5
D75
  8
CK_LEVEL_1
 10
84.4740142111855
 20
23.12019247357568
 30
0.0
  0
VERTEX
  5
D76
  8
CK_LEVEL_1
 10
77.25747892609321
 20
23.12019247357568
 30
0.0
 42
-0.5773502691973786
  0
SEQEND
  5
EAC
  8
CK_LEVEL_1
  0
POLYLINE
  5
12C
  8
CK_LEVEL_1
 66
     1
 10
0.0
 20
0.0
 30
0.0
 70
     1
  0
VERTEX
  5
D77
  8
CK_LEVEL_1
 10
74.97295437730517
 20
32.05693961633038
 30
0.0
  0
VERTEX
  5
D78
  8
CK_LEVEL_1
 10
71.36468673475902
 20
38.30664250052712
 30
0.0
 42
0.5773502691860283
  0
VERTEX
  5
D79
  8
CK_LEVEL_1
 10
70.77531042764038
 20
38.30664250052712
 30
0.0
  0
VERTEX
  5
D7A
  8
CK_LEVEL_1
 10
67.16704278509428
 20
32.05693961633038
 30
0.0
 42
0.5773502691813766
  0
VERTEX
  5
D7B
  8
CK_LEVEL_1
 10
67.46173093865356
 20
31.54652476197697
 30
0.0
  0
VERTEX
  5
D7C
  8
CK_LEVEL_1
 10
74.67826622374585
 20
31.54652476197697
 30
0.0
 42
0.5773502691973786
  0
SEQEND
  5
EAD
  8
CK_LEVEL_1
  0
POLYLINE
  5
12D
  8
CK_LEVEL_1
 66
     1
 10
0.0
 20
0.0
 30
0.0
 70
     1
  0
VERTEX
  5
D7D
  8
CK_LEVEL_1
 10
76.96279077253389
 20
32.05693961633038
 30
0.0
  0
VERTEX
  5
D7E
  8
CK_LEVEL_1
 10
80.57105841508005
 20
38.30664250052712
 30
0.0
 42
-0.5773502691860283
  0
VERTEX
  5
D7F
  8
CK_LEVEL_1
 10
81.16043472219869
 20
38.30664250052712
 30
0.0
  0
VERTEX
  5
D80
  8
CK_LEVEL_1
 10
84.76870236474478
 20
32.05693961633038
 30
0.0
 42
-0.5773502691813766
  0
VERTEX
  5
D81
  8
CK_LEVEL_1
 10
84.4740142111855
 20
31.54652476197697
 30
0.0
  0
VERTEX
  5
D82
  8
CK_LEVEL_1
 10
77.25747892609321
 20
31.54652476197697
 30
0.0
 42
-0.5773502691973786
  0
SEQEND
  5
EAE
  8
CK_LEVEL_1
  0
POLYLINE
  5
12E
  8
CK_LEVEL_1
 66
     1
 10
0.0
 20
0.0
 30
0.0
 70
     1
  0
VERTEX
  5
D83
  8
CK_LEVEL_1
 10
74.97295437730517
 20
40.0619552903116
 30
0.0
  0
VERTEX
  5
D84
  8
CK_LEVEL_1
 10
71.36468673475902
 20
46.31165817450834
 30
0.0
 42
0.5773502691860283
  0
VERTEX
  5
D85
  8
CK_LEVEL_1
 10
70.77531042764038
 20
46.31165817450834
 30
0.0
  0
VERTEX
  5
D86
  8
CK_LEVEL_1
 10
67.16704278509428
 20
40.0619552903116
 30
0.0
 42
0.5773502691813766
  0
VERTEX
  5
D87
  8
CK_LEVEL_1
 10
67.46173093865356
 20
39.55154043595819
 30
0.0
  0
VERTEX
  5
D88
  8
CK_LEVEL_1
 10
74.67826622374585
 20
39.55154043595819
 30
0.0
 42
0.5773502691973786
  0
SEQEND
  5
EAF
  8
CK_LEVEL_1
  0
POLYLINE
  5
12F
  8
CK_LEVEL_1
 66
     1
 10
0.0
 20
0.0
 30
0.0
 70
     1
  0
VERTEX
  5
D89
  8
CK_LEVEL_1
 10
76.96279077253389
 20
40.0619552903116
 30
0.0
  0
VERTEX
  5
D8A
  8
CK_LEVEL_1
 10
80.57105841508005
 20
46.31165817450834
 30
0.0
 42
-0.5773502691860283
  0
VERTEX
  5
D8B
  8
CK_LEVEL_1
 10
81.16043472219869
 20
46.31165817450834
 30
0.0
  0
VERTEX
  5
D8C
  8
CK_LEVEL_1
 10
84.76870236474478
 20
40.0619552903116
 30
0.0
 42
-0.5773502691813766
  0
VERTEX
  5
D8D
  8
CK_LEVEL_1
 10
84.4740142111855
 20
39.55154043595819
 30
0.0
  0
VERTEX
  5
D8E
  8
CK_LEVEL_1
 10
77.25747892609321
 20
39.55154043595819
 30
0.0
 42
-0.5773502691973786
  0
SEQEND
  5
EB0
  8
CK_LEVEL_1
  0
POLYLINE
  5
130
  8
CK_LEVEL_1
 66
     1
 10
0.0
 20
0.0
 30
0.0
 70
     1
  0
VERTEX
  5
D8F
  8
CK_LEVEL_1
 10
55.5158940430851
 20
40.05303826625658
 30
0.0
  0
VERTEX
  5
D90
  8
CK_LEVEL_1
 10
52.67759283857995
 20
44.96912015964335
 30
0.0
 42
0.5773502691860283
  0
VERTEX
  5
D91
  8
CK_LEVEL_1
 10
52.21398324857151
 20
44.96912015964335
 30
0.0
  0
VERTEX
  5
D92
  8
CK_LEVEL_1
 10
49.37568204406642
 20
40.05303826625658
 30
0.0
 42
0.5773502691813766
  0
VERTEX
  5
D93
  8
CK_LEVEL_1
 10
49.60748683907065
 20
39.65154058387115
 30
0.0
  0
VERTEX
  5
D94
  8
CK_LEVEL_1
 10
55.28408924808085
 20
39.65154058387115
 30
0.0
 42
0.5773502691973786
  0
SEQEND
  5
EB1
  8
CK_LEVEL_1
  0
POLYLINE
  5
131
  8
CK_LEVEL_1
 66
     1
 10
0.0
 20
0.0
 30
0.0
 70
     1
  0
VERTEX
  5
D95
  8
CK_LEVEL_1
 10
57.49357639109676
 20
40.05303826625658
 30
0.0
  0
VERTEX
  5
D96
  8
CK_LEVEL_1
 10
60.3318775956019
 20
44.96912015964335
 30
0.0
 42
-0.5773502691860283
  0
VERTEX
  5
D97
  8
CK_LEVEL_1
 10
60.79548718561035
 20
44.96912015964335
 30
0.0
  0
VERTEX
  5
D98
  8
CK_LEVEL_1
 10
63.63378839011543
 20
40.05303826625658
 30
0.0
 42
-0.5773502691813766
  0
VERTEX
  5
D99
  8
CK_LEVEL_1
 10
63.40198359511121
 20
39.65154058387115
 30
0.0
  0
VERTEX
  5
D9A
  8
CK_LEVEL_1
 10
57.72538118610101
 20
39.65154058387115
 30
0.0
 42
-0.5773502691973786
  0
SEQEND
  5
EB2
  8
CK_LEVEL_1
  0
POLYLINE
  5
132
  8
CK_LEVEL_1
 66
     1
 10
0.0
 20
0.0
 30
0.0
 70
     1
  0
VERTEX
  5
D9B
  8
CK_LEVEL_1
 10
55.5158940430851
 20
33.31197243553555
 30
0.0
  0
VERTEX
  5
D9C
  8
CK_LEVEL_1
 10
52.67759283857995
 20
38.22805432892233
 30
0.0
 42
0.5773502691860283
  0
VERTEX
  5
D9D
  8
CK_LEVEL_1
 10
52.21398324857151
 20
38.22805432892233
 30
0.0
  0
VERTEX
  5
D9E
  8
CK_LEVEL_1
 10
49.37568204406642
 20
33.31197243553555
 30
0.0
 42
0.5773502691813766
  0
VERTEX
  5
D9F
  8
CK_LEVEL_1
 10
49.60748683907065
 20
32.91047475315013
 30
0.0
  0
VERTEX
  5
DA0
  8
CK_LEVEL_1
 10
55.28408924808085
 20
32.91047475315013
 30
0.0
 42
0.5773502691973786
  0
SEQEND
  5
EB3
  8
CK_LEVEL_1
  0
POLYLINE
  5
133
  8
CK_LEVEL_1
 66
     1
 10
0.0
 20
0.0
 30
0.0
 70
     1
  0
VERTEX
  5
DA1
  8
CK_LEVEL_1
 10
57.49357639109676
 20
33.31197243553555
 30
0.0
  0
VERTEX
  5
DA2
  8
CK_LEVEL_1
 10
60.3318775956019
 20
38.22805432892233
 30
0.0
 42
-0.5773502691860283
  0
VERTEX
  5
DA3
  8
CK_LEVEL_1
 10
60.79548718561035
 20
38.22805432892233
 30
0.0
  0
VERTEX
  5
DA4
  8
CK_LEVEL_1
 10
63.63378839011543
 20
33.31197243553555
 30
0.0
 42
-0.5773502691813766
  0
VERTEX
  5
DA5
  8
CK_LEVEL_1
 10
63.40198359511121
 20
32.91047475315013
 30
0.0
  0
VERTEX
  5
DA6
  8
CK_LEVEL_1
 10
57.72538118610101
 20
32.91047475315013
 30
0.0
 42
-0.5773502691973786
  0
SEQEND
  5
EB4
  8
CK_LEVEL_1
  0
POLYLINE
  5
134
  8
CK_LEVEL_1
 66
     1
 10
0.0
 20
0.0
 30
0.0
 70
     1
  0
VERTEX
  5
DA7
  8
CK_LEVEL_1
 10
55.5158940430851
 20
26.23385331327847
 30
0.0
  0
VERTEX
  5
DA8
  8
CK_LEVEL_1
 10
52.67759283857995
 20
31.14993520666525
 30
0.0
 42
0.5773502691860283
  0
VERTEX
  5
DA9
  8
CK_LEVEL_1
 10
52.21398324857151
 20
31.14993520666525
 30
0.0
  0
VERTEX
  5
DAA
  8
CK_LEVEL_1
 10
49.37568204406642
 20
26.23385331327847
 30
0.0
 42
0.5773502691813766
  0
VERTEX
  5
DAB
  8
CK_LEVEL_1
 10
49.60748683907065
 20
25.83235563089305
 30
0.0
  0
VERTEX
  5
DAC
  8
CK_LEVEL_1
 10
55.28408924808085
 20
25.83235563089305
 30
0.0
 42
0.5773502691973786
  0
SEQEND
  5
EB5
  8
CK_LEVEL_1
  0
POLYLINE
  5
135
  8
CK_LEVEL_1
 66
     1
 10
0.0
 20
0.0
 30
0.0
 70
     1
  0
VERTEX
  5
DAD
  8
CK_LEVEL_1
 10
57.49357639109676
 20
26.23385331327847
 30
0.0
  0
VERTEX
  5
DAE
  8
CK_LEVEL_1
 10
60.3318775956019
 20
31.14993520666525
 30
0.0
 42
-0.5773502691860283
  0
VERTEX
  5
DAF
  8
CK_LEVEL_1
 10
60.79548718561035
 20
31.14993520666525
 30
0.0
  0
VERTEX
  5
DB0
  8
CK_LEVEL_1
 10
63.63378839011543
 20
26.23385331327847
 30
0.0
 42
-0.5773502691813766
  0
VERTEX
  5
DB1
  8
CK_LEVEL_1
 10
63.40198359511121
 20
25.83235563089305
 30
0.0
  0
VERTEX
  5
DB2
  8
CK_LEVEL_1
 10
57.72538118610101
 20
25.83235563089305
 30
0.0
 42
-0.5773502691973786
  0
SEQEND
  5
EB6
  8
CK_LEVEL_1
  0
POLYLINE
  5
136
  8
CK_LEVEL_1
 66
     1
 10
0.0
 20
0.0
 30
0.0
 70
     1
  0
VERTEX
  5
DB3
  8
CK_LEVEL_1
 10
55.5158940430851
 20
19.15573419102139
 30
0.0
  0
VERTEX
  5
DB4
  8
CK_LEVEL_1
 10
52.67759283857995
 20
24.07181608440817
 30
0.0
 42
0.5773502691860283
  0
VERTEX
  5
DB5
  8
CK_LEVEL_1
 10
52.21398324857151
 20
24.07181608440817
 30
0.0
  0
VERTEX
  5
DB6
  8
CK_LEVEL_1
 10
49.37568204406642
 20
19.15573419102139
 30
0.0
 42
0.5773502691813766
  0
VERTEX
  5
DB7
  8
CK_LEVEL_1
 10
49.60748683907065
 20
18.75423650863597
 30
0.0
  0
VERTEX
  5
DB8
  8
CK_LEVEL_1
 10
55.28408924808085
 20
18.75423650863597
 30
0.0
 42
0.5773502691973786
  0
SEQEND
  5
EB7
  8
CK_LEVEL_1
  0
POLYLINE
  5
137
  8
CK_LEVEL_1
 66
     1
 10
0.0
 20
0.0
 30
0.0
 70
     1
  0
VERTEX
  5
DB9
  8
CK_LEVEL_1
 10
57.49357639109676
 20
19.15573419102139
 30
0.0
  0
VERTEX
  5
DBA
  8
CK_LEVEL_1
 10
60.3318775956019
 20
24.07181608440817
 30
0.0
 42
-0.5773502691860283
  0
VERTEX
  5
DBB
  8
CK_LEVEL_1
 10
60.79548718561035
 20
24.07181608440817
 30
0.0
  0
VERTEX
  5
DBC
  8
CK_LEVEL_1
 10
63.63378839011543
 20
19.15573419102139
 30
0.0
 42
-0.5773502691813766
  0
VERTEX
  5
DBD
  8
CK_LEVEL_1
 10
63.40198359511121
 20
18.75423650863597
 30
0.0
  0
VERTEX
  5
DBE
  8
CK_LEVEL_1
 10
57.72538118610101
 20
18.75423650863597
 30
0.0
 42
-0.5773502691973786
  0
SEQEND
  5
EB8
  8
CK_LEVEL_1
  0
POLYLINE
  5
138
  8
CK_LEVEL_1
 66
     1
 10
0.0
 20
0.0
 30
0.0
 70
     1
  0
VERTEX
  5
DBF
  8
CK_LEVEL_1
 10
91.24939873946747
 20
17.8326503465503
 30
0.0
  0
VERTEX
  5
DC0
  8
CK_LEVEL_1
 10
91.25013996246415
 20
18.85552292582902
 30
0.0
 42
1.0
  0
VERTEX
  5
DC1
  8
CK_LEVEL_1
 10
91.07336331358157
 20
19.03242772204466
 30
0.0
  0
VERTEX
  5
DC2
  8
CK_LEVEL_1
 10
89.98670929519761
 20
19.03242772204466
 30
0.0
 42
1.0
  0
VERTEX
  5
DC3
  8
CK_LEVEL_1
 10
89.80993266698037
 20
18.85549702629099
 30
0.0
  0
VERTEX
  5
DC4
  8
CK_LEVEL_1
 10
89.81082372852964
 20
17.8326503465503
 30
0.0
  0
VERTEX
  5
DC5
  8
CK_LEVEL_1
 10
86.921827476341
 20
17.8326503465503
 30
0.0
 42
-0.5773502691813766
  0
VERTEX
  5
DC6
  8
CK_LEVEL_1
 10
86.62713932278167
 20
18.34306520090372
 30
0.0
  0
VERTEX
  5
DC7
  8
CK_LEVEL_1
 10
90.23540696532784
 20
24.59276808510047
 30
0.0
 42
-0.5773502691860283
  0
VERTEX
  5
DC8
  8
CK_LEVEL_1
 10
90.82478327244648
 20
24.59276808510047
 30
0.0
  0
VERTEX
  5
DC9
  8
CK_LEVEL_1
 10
94.4330509149927
 20
18.34306520090372
 30
0.0
 42
-0.5773502691973786
  0
VERTEX
  5
DCA
  8
CK_LEVEL_1
 10
94.13836276143338
 20
17.8326503465503
 30
0.0
  0
SEQEND
  5
EB9
  8
CK_LEVEL_1
  0
POLYLINE
  5
139
  8
CK_LEVEL_1
 66
     1
 10
0.0
 20
0.0
 30
0.0
 70
     1
  0
VERTEX
  5
DCB
  8
CK_LEVEL_1
 10
91.24947873946746
 20
8.879691294833812
 30
0.0
  0
VERTEX
  5
DCC
  8
CK_LEVEL_1
 10
91.25021996246414
 20
9.902563874112532
 30
0.0
 42
1.0
  0
VERTEX
  5
DCD
  8
CK_LEVEL_1
 10
91.07344331358156
 20
10.07946867032817
 30
0.0
  0
VERTEX
  5
DCE
  8
CK_LEVEL_1
 10
89.98678929519761
 20
10.07946867032816
 30
0.0
 42
1.0
  0
VERTEX
  5
DCF
  8
CK_LEVEL_1
 10
89.81001266698037
 20
9.902537974574495
 30
0.0
  0
VERTEX
  5
DD0
  8
CK_LEVEL_1
 10
89.81090372852964
 20
8.879691294833812
 30
0.0
  0
VERTEX
  5
DD1
  8
CK_LEVEL_1
 10
86.92190747634099
 20
8.879691294833812
 30
0.0
 42
-0.5773502691813766
  0
VERTEX
  5
DD2
  8
CK_LEVEL_1
 10
86.62721932278167
 20
9.390106149187226
 30
0.0
  0
VERTEX
  5
DD3
  8
CK_LEVEL_1
 10
90.23548696532784
 20
15.63980903338398
 30
0.0
 42
-0.5773502691860283
  0
VERTEX
  5
DD4
  8
CK_LEVEL_1
 10
90.82486327244648
 20
15.63980903338398
 30
0.0
  0
VERTEX
  5
DD5
  8
CK_LEVEL_1
 10
94.4331309149927
 20
9.390106149187226
 30
0.0
 42
-0.5773502691973786
  0
VERTEX
  5
DD6
  8
CK_LEVEL_1
 10
94.13844276143338
 20
8.879691294833812
 30
0.0
  0
SEQEND
  5
EBA
  8
CK_LEVEL_1
  0
POLYLINE
  5
13A
  8
CK_LEVEL_1
 66
     1
 10
0.0
 20
0.0
 30
0.0
 70
     1
  0
VERTEX
  5
DD7
  8
CK_LEVEL_1
 10
84.40288381344942
 20
3.086589521485388
 30
0.0
  0
VERTEX
  5
DD8
  8
CK_LEVEL_1
 10
84.4036250364461
 20
4.109462100764107
 30
0.0
 42
1.0
  0
VERTEX
  5
DD9
  8
CK_LEVEL_1
 10
84.22684838756352
 20
4.286366896979747
 30
0.0
  0
VERTEX
  5
DDA
  8
CK_LEVEL_1
 10
83.14019436917957
 20
4.286366896979739
 30
0.0
 42
1.0
  0
VERTEX
  5
DDB
  8
CK_LEVEL_1
 10
82.96341774096233
 20
4.109436201226069
 30
0.0
  0
VERTEX
  5
DDC
  8
CK_LEVEL_1
 10
82.9643088025116
 20
3.086589521485388
 30
0.0
  0
VERTEX
  5
DDD
  8
CK_LEVEL_1
 10
80.07531255032295
 20
3.086589521485388
 30
0.0
 42
-0.5773502691813766
  0
VERTEX
  5
DDE
  8
CK_LEVEL_1
 10
79.78062439676363
 20
3.597004375838802
 30
0.0
  0
VERTEX
  5
DDF
  8
CK_LEVEL_1
 10
83.3888920393098
 20
9.846707260035554
 30
0.0
 42
-0.5773502691860283
  0
VERTEX
  5
DE0
  8
CK_LEVEL_1
 10
83.97826834642844
 20
9.846707260035554
 30
0.0
  0
VERTEX
  5
DE1
  8
CK_LEVEL_1
 10
87.58653598897466
 20
3.597004375838802
 30
0.0
 42
-0.5773502691973786
  0
VERTEX
  5
DE2
  8
CK_LEVEL_1
 10
87.29184783541534
 20
3.086589521485388
 30
0.0
  0
SEQEND
  5
EBB
  8
CK_LEVEL_1
  0
POLYLINE
  5
13B
  8
CK_LEVEL_1
 66
     1
 10
0.0
 20
0.0
 30
0.0
 70
     1
  0
VERTEX
  5
DE3
  8
CK_LEVEL_1
 10
74.9115693276701
 20
3.086589521485388
 30
0.0
  0
VERTEX
  5
DE4
  8
CK_LEVEL_1
 10
74.91231055066677
 20
4.109462100764107
 30
0.0
 42
1.0
  0
VERTEX
  5
DE5
  8
CK_LEVEL_1
 10
74.7355339017842
 20
4.286366896979747
 30
0.0
  0
VERTEX
  5
DE6
  8
CK_LEVEL_1
 10
73.64887988340024
 20
4.286366896979739
 30
0.0
 42
1.0
  0
VERTEX
  5
DE7
  8
CK_LEVEL_1
 10
73.472103255183
 20
4.109436201226069
 30
0.0
  0
VERTEX
  5
DE8
  8
CK_LEVEL_1
 10
73.47299431673227
 20
3.086589521485388
 30
0.0
  0
VERTEX
  5
DE9
  8
CK_LEVEL_1
 10
70.58399806454362
 20
3.086589521485388
 30
0.0
 42
-0.5773502691813766
  0
VERTEX
  5
DEA
  8
CK_LEVEL_1
 10
70.2893099109843
 20
3.597004375838802
 30
0.0
  0
VERTEX
  5
DEB
  8
CK_LEVEL_1
 10
73.89757755353047
 20
9.846707260035554
 30
0.0
 42
-0.5773502691860283
  0
VERTEX
  5
DEC
  8
CK_LEVEL_1
 10
74.48695386064911
 20
9.846707260035554
 30
0.0
  0
VERTEX
  5
DED
  8
CK_LEVEL_1
 10
78.09522150319533
 20
3.597004375838802
 30
0.0
 42
-0.5773502691973786
  0
VERTEX
  5
DEE
  8
CK_LEVEL_1
 10
77.80053334963601
 20
3.086589521485388
 30
0.0
  0
SEQEND
  5
EBC
  8
CK_LEVEL_1
  0
ENDSEC
  0
EOF
