ISO-10303-21;
HEADER;
/* Generated by software containing ST-Developer
 * from STEP Tools, Inc. (www.steptools.com) 
 */
/* OPTION: using custom schema-name function */

FILE_DESCRIPTION(
/* description */ (''),
/* implementation_level */ '2;1');

FILE_NAME(
/* name */ 'FAKEAS~1',
/* time_stamp */ '2016-10-26T11:33:00-07:00',
/* author */ (''),
/* organization */ (''),
/* preprocessor_version */ 'ST-DEVELOPER v15',
/* originating_system */ '',
/* authorisation */ '');

FILE_SCHEMA (('AUTOMOTIVE_DESIGN_CC2'));
ENDSEC;

DATA;
#10=B_SPLINE_CURVE_WITH_KNOTS('',1,(#299,#300),.UNSPECIFIED.,.F.,.F.,(2,
2),(0.,20.),.UNSPECIFIED.);
#11=B_SPLINE_CURVE_WITH_KNOTS('',1,(#301,#302),.UNSPECIFIED.,.F.,.F.,(2,
2),(0.,50.),.UNSPECIFIED.);
#12=B_SPLINE_CURVE_WITH_KNOTS('',1,(#303,#304),.UNSPECIFIED.,.F.,.F.,(2,
2),(0.,20.),.UNSPECIFIED.);
#13=B_SPLINE_CURVE_WITH_KNOTS('',1,(#305,#306),.UNSPECIFIED.,.F.,.F.,(2,
2),(0.,50.),.UNSPECIFIED.);
#14=B_SPLINE_CURVE_WITH_KNOTS('',1,(#307,#308),.UNSPECIFIED.,.F.,.F.,(2,
2),(20.,50.),.UNSPECIFIED.);
#15=B_SPLINE_CURVE_WITH_KNOTS('',1,(#309,#310),.UNSPECIFIED.,.F.,.F.,(2,
2),(0.,50.),.UNSPECIFIED.);
#16=B_SPLINE_CURVE_WITH_KNOTS('',1,(#311,#312),.UNSPECIFIED.,.F.,.F.,(2,
2),(20.,50.),.UNSPECIFIED.);
#17=B_SPLINE_CURVE_WITH_KNOTS('',1,(#313,#314),.UNSPECIFIED.,.F.,.F.,(2,
2),(50.,70.),.UNSPECIFIED.);
#18=B_SPLINE_CURVE_WITH_KNOTS('',1,(#315,#316),.UNSPECIFIED.,.F.,.F.,(2,
2),(0.,50.),.UNSPECIFIED.);
#19=B_SPLINE_CURVE_WITH_KNOTS('',1,(#317,#318),.UNSPECIFIED.,.F.,.F.,(2,
2),(50.,70.),.UNSPECIFIED.);
#20=B_SPLINE_CURVE_WITH_KNOTS('',1,(#319,#320),.UNSPECIFIED.,.F.,.F.,(2,
2),(70.,100.),.UNSPECIFIED.);
#21=B_SPLINE_CURVE_WITH_KNOTS('',1,(#321,#322),.UNSPECIFIED.,.F.,.F.,(2,
2),(70.,100.),.UNSPECIFIED.);
#22=PLANE('',#190);
#23=PLANE('',#191);
#24=PLANE('',#192);
#25=PLANE('',#193);
#26=PLANE('',#194);
#27=PLANE('',#195);
#28=(
REPRESENTATION_RELATIONSHIP('','',#183,#182)
REPRESENTATION_RELATIONSHIP_WITH_TRANSFORMATION(#30)
SHAPE_REPRESENTATION_RELATIONSHIP()
);
#29=(
REPRESENTATION_RELATIONSHIP('','',#184,#182)
REPRESENTATION_RELATIONSHIP_WITH_TRANSFORMATION(#31)
SHAPE_REPRESENTATION_RELATIONSHIP()
);
#30=ITEM_DEFINED_TRANSFORMATION('','',#186,#188);
#31=ITEM_DEFINED_TRANSFORMATION('','',#189,#197);
#32=CONTEXT_DEPENDENT_SHAPE_REPRESENTATION(#28,#131);
#33=CONTEXT_DEPENDENT_SHAPE_REPRESENTATION(#29,#133);
#34=NEXT_ASSEMBLY_USAGE_OCCURRENCE('','','',#137,#138,'');
#35=NEXT_ASSEMBLY_USAGE_OCCURRENCE('','','',#137,#139,'');
#36=SHAPE_REPRESENTATION_RELATIONSHIP('','',#183,#42);
#37=SHAPE_REPRESENTATION_RELATIONSHIP('','',#184,#43);
#38=PRESENTATION_LAYER_ASSIGNMENT('Default','',(#40));
#39=PRESENTATION_LAYER_ASSIGNMENT('Default','',(#41));
#40=MANIFOLD_SOLID_BREP('brep_1',#44);
#41=MANIFOLD_SOLID_BREP('brep_1',#45);
#42=ADVANCED_BREP_SHAPE_REPRESENTATION('brep_rep_0',(#40,#187),#180);
#43=ADVANCED_BREP_SHAPE_REPRESENTATION('brep_rep_0',(#41,#196),#181);
#44=CLOSED_SHELL('',(#46,#47));
#45=CLOSED_SHELL('',(#48,#49,#50,#51,#52,#53));
#46=ADVANCED_FACE('',(#54),#124,.T.);
#47=ADVANCED_FACE('',(#55),#125,.T.);
#48=ADVANCED_FACE('',(#56),#22,.T.);
#49=ADVANCED_FACE('',(#57),#23,.T.);
#50=ADVANCED_FACE('',(#58),#24,.T.);
#51=ADVANCED_FACE('',(#59),#25,.T.);
#52=ADVANCED_FACE('',(#60),#26,.T.);
#53=ADVANCED_FACE('',(#61),#27,.T.);
#54=FACE_OUTER_BOUND('',#62,.T.);
#55=FACE_OUTER_BOUND('',#63,.T.);
#56=FACE_OUTER_BOUND('',#64,.T.);
#57=FACE_OUTER_BOUND('',#65,.T.);
#58=FACE_OUTER_BOUND('',#66,.T.);
#59=FACE_OUTER_BOUND('',#67,.T.);
#60=FACE_OUTER_BOUND('',#68,.T.);
#61=FACE_OUTER_BOUND('',#69,.T.);
#62=EDGE_LOOP('',(#70,#71));
#63=EDGE_LOOP('',(#72,#73));
#64=EDGE_LOOP('',(#74,#75,#76,#77));
#65=EDGE_LOOP('',(#78,#79,#80,#81));
#66=EDGE_LOOP('',(#82,#83,#84,#85));
#67=EDGE_LOOP('',(#86,#87,#88,#89));
#68=EDGE_LOOP('',(#90,#91,#92,#93));
#69=EDGE_LOOP('',(#94,#95,#96,#97));
#70=ORIENTED_EDGE('',*,*,#99,.T.);
#71=ORIENTED_EDGE('',*,*,#98,.F.);
#72=ORIENTED_EDGE('',*,*,#98,.T.);
#73=ORIENTED_EDGE('',*,*,#99,.F.);
#74=ORIENTED_EDGE('',*,*,#100,.T.);
#75=ORIENTED_EDGE('',*,*,#101,.T.);
#76=ORIENTED_EDGE('',*,*,#102,.F.);
#77=ORIENTED_EDGE('',*,*,#103,.F.);
#78=ORIENTED_EDGE('',*,*,#104,.T.);
#79=ORIENTED_EDGE('',*,*,#105,.T.);
#80=ORIENTED_EDGE('',*,*,#106,.F.);
#81=ORIENTED_EDGE('',*,*,#101,.F.);
#82=ORIENTED_EDGE('',*,*,#107,.T.);
#83=ORIENTED_EDGE('',*,*,#108,.T.);
#84=ORIENTED_EDGE('',*,*,#109,.F.);
#85=ORIENTED_EDGE('',*,*,#105,.F.);
#86=ORIENTED_EDGE('',*,*,#110,.T.);
#87=ORIENTED_EDGE('',*,*,#103,.T.);
#88=ORIENTED_EDGE('',*,*,#111,.F.);
#89=ORIENTED_EDGE('',*,*,#108,.F.);
#90=ORIENTED_EDGE('',*,*,#110,.F.);
#91=ORIENTED_EDGE('',*,*,#107,.F.);
#92=ORIENTED_EDGE('',*,*,#104,.F.);
#93=ORIENTED_EDGE('',*,*,#100,.F.);
#94=ORIENTED_EDGE('',*,*,#102,.T.);
#95=ORIENTED_EDGE('',*,*,#106,.T.);
#96=ORIENTED_EDGE('',*,*,#109,.T.);
#97=ORIENTED_EDGE('',*,*,#111,.T.);
#98=EDGE_CURVE('',#114,#115,#112,.T.);
#99=EDGE_CURVE('',#114,#115,#113,.T.);
#100=EDGE_CURVE('',#116,#117,#10,.T.);
#101=EDGE_CURVE('',#117,#118,#11,.T.);
#102=EDGE_CURVE('',#119,#118,#12,.T.);
#103=EDGE_CURVE('',#116,#119,#13,.T.);
#104=EDGE_CURVE('',#117,#120,#14,.T.);
#105=EDGE_CURVE('',#120,#121,#15,.T.);
#106=EDGE_CURVE('',#118,#121,#16,.T.);
#107=EDGE_CURVE('',#120,#122,#17,.T.);
#108=EDGE_CURVE('',#122,#123,#18,.T.);
#109=EDGE_CURVE('',#121,#123,#19,.T.);
#110=EDGE_CURVE('',#122,#116,#20,.T.);
#111=EDGE_CURVE('',#123,#119,#21,.T.);
#112=(
BOUNDED_CURVE()
B_SPLINE_CURVE(2,(#272,#273,#274,#275,#276),.UNSPECIFIED.,.F.,.F.)
B_SPLINE_CURVE_WITH_KNOTS((3,2,3),(-43.3377593456366,0.,43.3377593456366),
 .UNSPECIFIED.)
CURVE()
GEOMETRIC_REPRESENTATION_ITEM()
RATIONAL_B_SPLINE_CURVE((1.,0.707106781186548,1.,0.707106781186548,1.))
REPRESENTATION_ITEM('')
);
#113=(
BOUNDED_CURVE()
B_SPLINE_CURVE(2,(#277,#278,#279,#280,#281),.UNSPECIFIED.,.F.,.F.)
B_SPLINE_CURVE_WITH_KNOTS((3,2,3),(-43.3377593456366,0.,43.3377593456366),
 .UNSPECIFIED.)
CURVE()
GEOMETRIC_REPRESENTATION_ITEM()
RATIONAL_B_SPLINE_CURVE((1.,0.707106781186548,1.,0.707106781186548,1.))
REPRESENTATION_ITEM('')
);
#114=VERTEX_POINT('',#270);
#115=VERTEX_POINT('',#271);
#116=VERTEX_POINT('',#291);
#117=VERTEX_POINT('',#292);
#118=VERTEX_POINT('',#293);
#119=VERTEX_POINT('',#294);
#120=VERTEX_POINT('',#295);
#121=VERTEX_POINT('',#296);
#122=VERTEX_POINT('',#297);
#123=VERTEX_POINT('',#298);
#124=(
BOUNDED_SURFACE()
B_SPLINE_SURFACE(2,2,((#220,#221,#222,#223,#224),(#225,#226,#227,#228,#229),
(#230,#231,#232,#233,#234),(#235,#236,#237,#238,#239),(#240,#241,#242,#243,
#244)),.UNSPECIFIED.,.F.,.F.,.F.)
B_SPLINE_SURFACE_WITH_KNOTS((3,2,3),(3,2,3),(0.,43.3377593456366,86.6755186912733),
(-43.3377593456366,0.,43.3377593456366),.UNSPECIFIED.)
GEOMETRIC_REPRESENTATION_ITEM()
RATIONAL_B_SPLINE_SURFACE(((1.,0.707106781186548,1.,0.707106781186548,1.),
(0.707106781186548,0.5,0.707106781186548,0.5,0.707106781186548),(1.,0.707106781186548,
1.,0.707106781186548,1.),(0.707106781186548,0.5,0.707106781186548,0.5,0.707106781186548),
(1.,0.707106781186548,1.,0.707106781186548,1.)))
REPRESENTATION_ITEM('')
SURFACE()
);
#125=(
BOUNDED_SURFACE()
B_SPLINE_SURFACE(2,2,((#245,#246,#247,#248,#249),(#250,#251,#252,#253,#254),
(#255,#256,#257,#258,#259),(#260,#261,#262,#263,#264),(#265,#266,#267,#268,
#269)),.UNSPECIFIED.,.F.,.F.,.F.)
B_SPLINE_SURFACE_WITH_KNOTS((3,2,3),(3,2,3),(86.6755186912733,130.01327803691,
173.351037382547),(-43.3377593456366,0.,43.3377593456366),.UNSPECIFIED.)
GEOMETRIC_REPRESENTATION_ITEM()
RATIONAL_B_SPLINE_SURFACE(((1.,0.707106781186548,1.,0.707106781186548,1.),
(0.707106781186548,0.5,0.707106781186548,0.5,0.707106781186548),(1.,0.707106781186548,
1.,0.707106781186548,1.),(0.707106781186548,0.5,0.707106781186548,0.5,0.707106781186548),
(1.,0.707106781186548,1.,0.707106781186548,1.)))
REPRESENTATION_ITEM('')
SURFACE()
);
#126=SHAPE_DEFINITION_REPRESENTATION(#129,#182);
#127=SHAPE_DEFINITION_REPRESENTATION(#130,#183);
#128=SHAPE_DEFINITION_REPRESENTATION(#132,#184);
#129=PRODUCT_DEFINITION_SHAPE('Document','',#137);
#130=PRODUCT_DEFINITION_SHAPE('Block 02','',#138);
#131=PRODUCT_DEFINITION_SHAPE('','',#34);
#132=PRODUCT_DEFINITION_SHAPE('Block 01','',#139);
#133=PRODUCT_DEFINITION_SHAPE('','',#35);
#134=PRODUCT_DEFINITION_CONTEXT('3D Mechanical Parts',#149,'design');
#135=PRODUCT_DEFINITION_CONTEXT('3D Mechanical Parts',#150,'design');
#136=PRODUCT_DEFINITION_CONTEXT('3D Mechanical Parts',#151,'design');
#137=PRODUCT_DEFINITION('A','First version',#140,#134);
#138=PRODUCT_DEFINITION('A','First version',#141,#135);
#139=PRODUCT_DEFINITION('A','First version',#142,#136);
#140=PRODUCT_DEFINITION_FORMATION_WITH_SPECIFIED_SOURCE('A',
'First version',#155,.MADE.);
#141=PRODUCT_DEFINITION_FORMATION_WITH_SPECIFIED_SOURCE('A',
'First version',#156,.MADE.);
#142=PRODUCT_DEFINITION_FORMATION_WITH_SPECIFIED_SOURCE('A',
'First version',#157,.MADE.);
#143=PRODUCT_RELATED_PRODUCT_CATEGORY('tool','tool',(#155));
#144=PRODUCT_RELATED_PRODUCT_CATEGORY('tool','tool',(#156));
#145=PRODUCT_RELATED_PRODUCT_CATEGORY('tool','tool',(#157));
#146=APPLICATION_PROTOCOL_DEFINITION('Draft International Standard',
'automotive_design',1999,#149);
#147=APPLICATION_PROTOCOL_DEFINITION('Draft International Standard',
'automotive_design',1999,#150);
#148=APPLICATION_PROTOCOL_DEFINITION('Draft International Standard',
'automotive_design',1999,#151);
#149=APPLICATION_CONTEXT(
'data for automotive mechanical design processes');
#150=APPLICATION_CONTEXT(
'data for automotive mechanical design processes');
#151=APPLICATION_CONTEXT(
'data for automotive mechanical design processes');
#152=PRODUCT_CONTEXT('3D Mechanical Parts',#149,'mechanical');
#153=PRODUCT_CONTEXT('3D Mechanical Parts',#150,'mechanical');
#154=PRODUCT_CONTEXT('3D Mechanical Parts',#151,'mechanical');
#155=PRODUCT('Document','Document','Rhino converted to STEP',(#152));
#156=PRODUCT('Block 02','Block 02','Rhino converted to STEP',(#153));
#157=PRODUCT('Block 01','Block 01','Rhino converted to STEP',(#154));
#158=(
LENGTH_UNIT()
NAMED_UNIT(*)
SI_UNIT(.MILLI.,.METRE.)
);
#159=(
LENGTH_UNIT()
NAMED_UNIT(*)
SI_UNIT(.MILLI.,.METRE.)
);
#160=(
LENGTH_UNIT()
NAMED_UNIT(*)
SI_UNIT(.MILLI.,.METRE.)
);
#161=(
NAMED_UNIT(*)
PLANE_ANGLE_UNIT()
SI_UNIT($,.RADIAN.)
);
#162=(
NAMED_UNIT(*)
PLANE_ANGLE_UNIT()
SI_UNIT($,.RADIAN.)
);
#163=(
NAMED_UNIT(*)
PLANE_ANGLE_UNIT()
SI_UNIT($,.RADIAN.)
);
#164=DIMENSIONAL_EXPONENTS(0.,0.,0.,0.,0.,0.,0.);
#165=DIMENSIONAL_EXPONENTS(0.,0.,0.,0.,0.,0.,0.);
#166=DIMENSIONAL_EXPONENTS(0.,0.,0.,0.,0.,0.,0.);
#167=PLANE_ANGLE_MEASURE_WITH_UNIT(PLANE_ANGLE_MEASURE(0.01745329252),#161);
#168=PLANE_ANGLE_MEASURE_WITH_UNIT(PLANE_ANGLE_MEASURE(0.01745329252),#162);
#169=PLANE_ANGLE_MEASURE_WITH_UNIT(PLANE_ANGLE_MEASURE(0.01745329252),#163);
#170=(
CONVERSION_BASED_UNIT('DEGREES',#167)
NAMED_UNIT(#164)
PLANE_ANGLE_UNIT()
);
#171=(
CONVERSION_BASED_UNIT('DEGREES',#168)
NAMED_UNIT(#165)
PLANE_ANGLE_UNIT()
);
#172=(
CONVERSION_BASED_UNIT('DEGREES',#169)
NAMED_UNIT(#166)
PLANE_ANGLE_UNIT()
);
#173=(
NAMED_UNIT(*)
SI_UNIT($,.STERADIAN.)
SOLID_ANGLE_UNIT()
);
#174=(
NAMED_UNIT(*)
SI_UNIT($,.STERADIAN.)
SOLID_ANGLE_UNIT()
);
#175=(
NAMED_UNIT(*)
SI_UNIT($,.STERADIAN.)
SOLID_ANGLE_UNIT()
);
#176=UNCERTAINTY_MEASURE_WITH_UNIT(LENGTH_MEASURE(0.001),#158,
'DISTANCE_ACCURACY_VALUE',
'Maximum model space distance between geometric entities at asserted c
onnectivities');
#177=UNCERTAINTY_MEASURE_WITH_UNIT(LENGTH_MEASURE(0.001),#159,
'DISTANCE_ACCURACY_VALUE',
'Maximum model space distance between geometric entities at asserted c
onnectivities');
#178=UNCERTAINTY_MEASURE_WITH_UNIT(LENGTH_MEASURE(0.001),#160,
'DISTANCE_ACCURACY_VALUE',
'Maximum model space distance between geometric entities at asserted c
onnectivities');
#179=(
GEOMETRIC_REPRESENTATION_CONTEXT(3)
GLOBAL_UNCERTAINTY_ASSIGNED_CONTEXT((#176))
GLOBAL_UNIT_ASSIGNED_CONTEXT((#173,#170,#158))
REPRESENTATION_CONTEXT('ID1','3D')
);
#180=(
GEOMETRIC_REPRESENTATION_CONTEXT(3)
GLOBAL_UNCERTAINTY_ASSIGNED_CONTEXT((#177))
GLOBAL_UNIT_ASSIGNED_CONTEXT((#174,#171,#159))
REPRESENTATION_CONTEXT('ID1','3D')
);
#181=(
GEOMETRIC_REPRESENTATION_CONTEXT(3)
GLOBAL_UNCERTAINTY_ASSIGNED_CONTEXT((#178))
GLOBAL_UNIT_ASSIGNED_CONTEXT((#175,#172,#160))
REPRESENTATION_CONTEXT('ID1','3D')
);
#182=SHAPE_REPRESENTATION('Document',(#185,#188,#197),#179);
#183=SHAPE_REPRESENTATION('Block 02',(#186,#187),#180);
#184=SHAPE_REPRESENTATION('Block 01',(#189,#196),#181);
#185=AXIS2_PLACEMENT_3D('',#218,#198,#199);
#186=AXIS2_PLACEMENT_3D('',#219,#200,#201);
#187=AXIS2_PLACEMENT_3D('',#282,#202,#203);
#188=AXIS2_PLACEMENT_3D('',#283,#204,#205);
#189=AXIS2_PLACEMENT_3D('',#284,#206,#207);
#190=AXIS2_PLACEMENT_3D('',#285,#208,$);
#191=AXIS2_PLACEMENT_3D('',#286,#209,$);
#192=AXIS2_PLACEMENT_3D('',#287,#210,$);
#193=AXIS2_PLACEMENT_3D('',#288,#211,$);
#194=AXIS2_PLACEMENT_3D('',#289,#212,$);
#195=AXIS2_PLACEMENT_3D('',#290,#213,$);
#196=AXIS2_PLACEMENT_3D('',#323,#214,#215);
#197=AXIS2_PLACEMENT_3D('',#324,#216,#217);
#198=DIRECTION('',(0.,0.,1.));
#199=DIRECTION('',(1.,0.,0.));
#200=DIRECTION('',(0.,0.,1.));
#201=DIRECTION('',(1.,0.,0.));
#202=DIRECTION('',(0.,0.,1.));
#203=DIRECTION('',(1.,0.,0.));
#204=DIRECTION('',(0.,0.,1.));
#205=DIRECTION('',(1.,0.,0.));
#206=DIRECTION('',(0.,0.,1.));
#207=DIRECTION('',(1.,0.,0.));
#208=DIRECTION('',(0.,-1.,0.));
#209=DIRECTION('',(1.,0.,0.));
#210=DIRECTION('',(0.,1.,0.));
#211=DIRECTION('',(-1.,0.,0.));
#212=DIRECTION('',(0.,0.,-1.));
#213=DIRECTION('',(0.,0.,1.));
#214=DIRECTION('',(0.,0.,1.));
#215=DIRECTION('',(1.,0.,0.));
#216=DIRECTION('',(0.,0.,1.));
#217=DIRECTION('',(1.,0.,0.));
#218=CARTESIAN_POINT('',(0.,0.,0.));
#219=CARTESIAN_POINT('',(0.,0.,0.));
#220=CARTESIAN_POINT('',(0.,0.,-27.5896744895402));
#221=CARTESIAN_POINT('',(22.1708078142442,-16.4208836334295,-27.5896744895402));
#222=CARTESIAN_POINT('',(22.1708078142442,-16.4208836334295,-1.68938032765664E-15));
#223=CARTESIAN_POINT('',(22.1708078142442,-16.4208836334295,27.5896744895402));
#224=CARTESIAN_POINT('',(0.,0.,27.5896744895402));
#225=CARTESIAN_POINT('',(0.,0.,-27.5896744895402));
#226=CARTESIAN_POINT('',(38.5916914476737,5.74992418081465,-27.5896744895402));
#227=CARTESIAN_POINT('',(38.5916914476737,5.74992418081465,-1.68938032765664E-15));
#228=CARTESIAN_POINT('',(38.5916914476737,5.74992418081465,27.5896744895402));
#229=CARTESIAN_POINT('',(0.,0.,27.5896744895402));
#230=CARTESIAN_POINT('',(0.,0.,-27.5896744895402));
#231=CARTESIAN_POINT('',(16.4208836334295,22.1708078142442,-27.5896744895402));
#232=CARTESIAN_POINT('',(16.4208836334295,22.1708078142442,-1.68938032765664E-15));
#233=CARTESIAN_POINT('',(16.4208836334295,22.1708078142442,27.5896744895402));
#234=CARTESIAN_POINT('',(0.,0.,27.5896744895402));
#235=CARTESIAN_POINT('',(0.,0.,-27.5896744895402));
#236=CARTESIAN_POINT('',(-5.74992418081465,38.5916914476737,-27.5896744895402));
#237=CARTESIAN_POINT('',(-5.74992418081465,38.5916914476737,-1.68938032765664E-15));
#238=CARTESIAN_POINT('',(-5.74992418081465,38.5916914476737,27.5896744895402));
#239=CARTESIAN_POINT('',(0.,0.,27.5896744895402));
#240=CARTESIAN_POINT('',(0.,0.,-27.5896744895402));
#241=CARTESIAN_POINT('',(-22.1708078142442,16.4208836334295,-27.5896744895402));
#242=CARTESIAN_POINT('',(-22.1708078142442,16.4208836334296,-1.68938032765664E-15));
#243=CARTESIAN_POINT('',(-22.1708078142442,16.4208836334296,27.5896744895402));
#244=CARTESIAN_POINT('',(0.,0.,27.5896744895402));
#245=CARTESIAN_POINT('',(0.,0.,-27.5896744895402));
#246=CARTESIAN_POINT('',(-22.1708078142442,16.4208836334295,-27.5896744895402));
#247=CARTESIAN_POINT('',(-22.1708078142442,16.4208836334295,-1.68938032765664E-15));
#248=CARTESIAN_POINT('',(-22.1708078142442,16.4208836334295,27.5896744895402));
#249=CARTESIAN_POINT('',(0.,0.,27.5896744895402));
#250=CARTESIAN_POINT('',(0.,0.,-27.5896744895402));
#251=CARTESIAN_POINT('',(-38.5916914476737,-5.74992418081465,-27.5896744895402));
#252=CARTESIAN_POINT('',(-38.5916914476737,-5.74992418081465,-1.68938032765664E-15));
#253=CARTESIAN_POINT('',(-38.5916914476737,-5.74992418081465,27.5896744895402));
#254=CARTESIAN_POINT('',(0.,0.,27.5896744895402));
#255=CARTESIAN_POINT('',(0.,0.,-27.5896744895402));
#256=CARTESIAN_POINT('',(-16.4208836334295,-22.1708078142442,-27.5896744895402));
#257=CARTESIAN_POINT('',(-16.4208836334295,-22.1708078142442,-1.68938032765664E-15));
#258=CARTESIAN_POINT('',(-16.4208836334295,-22.1708078142442,27.5896744895402));
#259=CARTESIAN_POINT('',(0.,0.,27.5896744895402));
#260=CARTESIAN_POINT('',(0.,0.,-27.5896744895402));
#261=CARTESIAN_POINT('',(5.74992418081465,-38.5916914476737,-27.5896744895402));
#262=CARTESIAN_POINT('',(5.74992418081465,-38.5916914476737,-1.68938032765664E-15));
#263=CARTESIAN_POINT('',(5.74992418081465,-38.5916914476737,27.5896744895402));
#264=CARTESIAN_POINT('',(0.,0.,27.5896744895402));
#265=CARTESIAN_POINT('',(0.,0.,-27.5896744895402));
#266=CARTESIAN_POINT('',(22.1708078142442,-16.4208836334295,-27.5896744895402));
#267=CARTESIAN_POINT('',(22.1708078142442,-16.4208836334296,-1.68938032765664E-15));
#268=CARTESIAN_POINT('',(22.1708078142442,-16.4208836334296,27.5896744895402));
#269=CARTESIAN_POINT('',(0.,0.,27.5896744895402));
#270=CARTESIAN_POINT('',(0.,0.,-27.5896744895402));
#271=CARTESIAN_POINT('',(0.,0.,27.5896744895402));
#272=CARTESIAN_POINT('',(0.,0.,-27.5896744895402));
#273=CARTESIAN_POINT('',(22.1708078142442,-16.4208836334295,-27.5896744895402));
#274=CARTESIAN_POINT('',(22.1708078142442,-16.4208836334295,-1.68938032765664E-15));
#275=CARTESIAN_POINT('',(22.1708078142442,-16.4208836334295,27.5896744895402));
#276=CARTESIAN_POINT('',(0.,0.,27.5896744895402));
#277=CARTESIAN_POINT('',(0.,0.,-27.5896744895402));
#278=CARTESIAN_POINT('',(-22.1708078142442,16.4208836334295,-27.5896744895402));
#279=CARTESIAN_POINT('',(-22.1708078142442,16.4208836334295,-1.68938032765664E-15));
#280=CARTESIAN_POINT('',(-22.1708078142442,16.4208836334295,27.5896744895402));
#281=CARTESIAN_POINT('',(0.,0.,27.5896744895402));
#282=CARTESIAN_POINT('',(0.,0.,0.));
#283=CARTESIAN_POINT('',(43.3872679869369,0.19521984464609,0.));
#284=CARTESIAN_POINT('',(0.,0.,0.));
#285=CARTESIAN_POINT('',(-20.,0.,0.));
#286=CARTESIAN_POINT('',(0.,0.,0.));
#287=CARTESIAN_POINT('',(0.,30.,0.));
#288=CARTESIAN_POINT('',(-20.,30.,0.));
#289=CARTESIAN_POINT('',(-20.,0.,0.));
#290=CARTESIAN_POINT('',(-20.,0.,50.));
#291=CARTESIAN_POINT('',(-20.,0.,0.));
#292=CARTESIAN_POINT('',(0.,0.,0.));
#293=CARTESIAN_POINT('',(0.,0.,50.));
#294=CARTESIAN_POINT('',(-20.,0.,50.));
#295=CARTESIAN_POINT('',(0.,30.,0.));
#296=CARTESIAN_POINT('',(0.,30.,50.));
#297=CARTESIAN_POINT('',(-20.,30.,0.));
#298=CARTESIAN_POINT('',(-20.,30.,50.));
#299=CARTESIAN_POINT('',(-20.,0.,0.));
#300=CARTESIAN_POINT('',(0.,0.,0.));
#301=CARTESIAN_POINT('',(0.,0.,0.));
#302=CARTESIAN_POINT('',(0.,0.,50.));
#303=CARTESIAN_POINT('',(-20.,0.,50.));
#304=CARTESIAN_POINT('',(0.,0.,50.));
#305=CARTESIAN_POINT('',(-20.,0.,0.));
#306=CARTESIAN_POINT('',(-20.,0.,50.));
#307=CARTESIAN_POINT('',(0.,0.,0.));
#308=CARTESIAN_POINT('',(0.,30.,0.));
#309=CARTESIAN_POINT('',(0.,30.,0.));
#310=CARTESIAN_POINT('',(0.,30.,50.));
#311=CARTESIAN_POINT('',(0.,0.,50.));
#312=CARTESIAN_POINT('',(0.,30.,50.));
#313=CARTESIAN_POINT('',(0.,30.,0.));
#314=CARTESIAN_POINT('',(-20.,30.,0.));
#315=CARTESIAN_POINT('',(-20.,30.,0.));
#316=CARTESIAN_POINT('',(-20.,30.,50.));
#317=CARTESIAN_POINT('',(0.,30.,50.));
#318=CARTESIAN_POINT('',(-20.,30.,50.));
#319=CARTESIAN_POINT('',(-20.,30.,0.));
#320=CARTESIAN_POINT('',(-20.,0.,0.));
#321=CARTESIAN_POINT('',(-20.,30.,50.));
#322=CARTESIAN_POINT('',(-20.,0.,50.));
#323=CARTESIAN_POINT('',(0.,0.,0.));
#324=CARTESIAN_POINT('',(-50.5177120397048,-15.,0.));
ENDSEC;
END-ISO-10303-21;
