ISO-10303-21;
HEADER;
FILE_DESCRIPTION (( 'STEP AP214' ),
    '1' );
FILE_NAME ('Pipe cut profile test 2 1-1- TaylorSteel.STEP',
    '2018-08-27T08:39:50',
    ( '' ),
    ( '' ),
    'SwSTEP 2.0',
    'SolidWorks 2016',
    '' );
FILE_SCHEMA (( 'AUTOMOTIVE_DESIGN' ));
ENDSEC;

DATA;
#1 = VERTEX_POINT ( 'NONE', #58 ) ;
#2 = LINE ( 'NONE', #121, #48 ) ;
#3 = AXIS2_PLACEMENT_3D ( 'NONE', #139, #67, #27 ) ;
#4 = ORIENTED_EDGE ( 'NONE', *, *, #181, .T. ) ;
#5 = CARTESIAN_POINT ( 'NONE',  ( 150.0698030180930400, 10.84999999999999400, -30.15000000000000200 ) ) ;
#6 = EDGE_CURVE ( 'NONE', #1, #75, #150, .T. ) ;
#7 = CARTESIAN_POINT ( 'NONE',  ( 93.76980301809315700, -45.44999999999997400, -28.14999999999992000 ) ) ;
#8 = DIRECTION ( 'NONE',  ( 0.0000000000000000000, 0.0000000000000000000, -1.000000000000000000 ) ) ;
#9 = DIRECTION ( 'NONE',  ( 1.000000000000000000, 0.0000000000000000000, -0.0000000000000000000 ) ) ;
#10 =( LENGTH_UNIT ( ) NAMED_UNIT ( * ) SI_UNIT ( .MILLI., .METRE. ) );
#11 = ORIENTED_EDGE ( 'NONE', *, *, #163, .T. ) ;
#12 = APPLICATION_PROTOCOL_DEFINITION ( 'draft international standard', 'automotive_design', 1998, #214 ) ;
#13 = PRODUCT_CONTEXT ( 'NONE', #128, 'mechanical' ) ;
#14 = PRODUCT_DEFINITION_CONTEXT ( 'detailed design', #214, 'design' ) ;
#15 = MANIFOLD_SOLID_BREP ( 'Cut-Extrude1', #115 ) ;
#16 = ORIENTED_EDGE ( 'NONE', *, *, #148, .T. ) ;
#17 = MECHANICAL_DESIGN_GEOMETRIC_PRESENTATION_REPRESENTATION (  '', ( #158 ), #56 ) ;
#18 = VECTOR ( 'NONE', #44, 1000.000000000000000 ) ;
#19 = ORIENTED_EDGE ( 'NONE', *, *, #22, .T. ) ;
#20 = SHAPE_DEFINITION_REPRESENTATION ( #173, #146 ) ;
#21 = CARTESIAN_POINT ( 'NONE',  ( -149.9301969819069900, 10.85000000000000100, 0.0000000000000000000 ) ) ;
#22 = EDGE_CURVE ( 'NONE', #87, #80, #81, .T. ) ;
#23 = LINE ( 'NONE', #123, #127 ) ;
#24 = ORIENTED_EDGE ( 'NONE', *, *, #90, .F. ) ;
#25 = FILL_AREA_STYLE ('',( #101 ) ) ;
#26 = PLANE ( 'NONE',  #3 ) ;
#27 = DIRECTION ( 'NONE',  ( 0.7071067811865473500, 0.7071067811865477900, 0.0000000000000000000 ) ) ;
#28 = ADVANCED_FACE ( 'NONE', ( #132 ), #143, .F. ) ;
#29 = FACE_OUTER_BOUND ( 'NONE', #176, .T. ) ;
#30 = CARTESIAN_POINT ( 'NONE',  ( -149.9301969819069900, 10.84999999999999800, 30.15000000000000200 ) ) ;
#31 = EDGE_CURVE ( 'NONE', #109, #75, #93, .T. ) ;
#32 = EDGE_LOOP ( 'NONE', ( #46, #145, #4, #164 ) ) ;
#33 = SURFACE_STYLE_USAGE ( .BOTH. , #200 ) ;
#34 = ADVANCED_FACE ( 'NONE', ( #179 ), #108, .T. ) ;
#35 = DIRECTION ( 'NONE',  ( 0.0000000000000000000, 0.0000000000000000000, 1.000000000000000000 ) ) ;
#36 = EDGE_LOOP ( 'NONE', ( #100, #19 ) ) ;
#37 = AXIS2_PLACEMENT_3D ( 'NONE', #104, #64, #77 ) ;
#38 = UNCERTAINTY_MEASURE_WITH_UNIT (LENGTH_MEASURE( 1.000000000000000100E-005 ), #206, 'distance_accuracy_value', 'NONE');
#39 = EDGE_LOOP ( 'NONE', ( #73, #16 ) ) ;
#40 = CARTESIAN_POINT ( 'NONE',  ( 150.0698030180931000, 10.85000000000000100, -28.14999999999999900 ) ) ;
#41 = DIRECTION ( 'NONE',  ( 0.0000000000000000000, 0.0000000000000000000, -1.000000000000000000 ) ) ;
#42 = CARTESIAN_POINT ( 'NONE',  ( -149.9301969819069900, 10.85000000000000100, 0.0000000000000000000 ) ) ;
#43 = EDGE_CURVE ( 'NONE', #75, #1, #167, .T. ) ;
#44 = DIRECTION ( 'NONE',  ( 1.000000000000000000, -0.0000000000000000000, 0.0000000000000000000 ) ) ;
#45 = ADVANCED_FACE ( 'NONE', ( #186, #152 ), #26, .T. ) ;
#46 = ORIENTED_EDGE ( 'NONE', *, *, #163, .F. ) ;
#47 = DIRECTION ( 'NONE',  ( 0.0000000000000000000, 0.0000000000000000000, -1.000000000000000000 ) ) ;
#48 = VECTOR ( 'NONE', #91, 1000.000000000000000 ) ;
#49 = DIRECTION ( 'NONE',  ( 0.0000000000000000000, 0.0000000000000000000, -1.000000000000000000 ) ) ;
#50 = STYLED_ITEM ( 'NONE', ( #189 ), #146 ) ;
#51 = CARTESIAN_POINT ( 'NONE',  ( -149.9301969819069900, 10.85000000000000100, -28.14999999999999900 ) ) ;
#52 = CARTESIAN_POINT ( 'NONE',  ( 0.0000000000000000000, 0.0000000000000000000, 0.0000000000000000000 ) ) ;
#53 = ORIENTED_EDGE ( 'NONE', *, *, #6, .T. ) ;
#54 = CYLINDRICAL_SURFACE ( 'NONE', #175, 30.15000000000000200 ) ;
#55 = PRESENTATION_LAYER_ASSIGNMENT (  '', '', ( #50 ) ) ;
#56 =( GEOMETRIC_REPRESENTATION_CONTEXT ( 3 ) GLOBAL_UNCERTAINTY_ASSIGNED_CONTEXT ( ( #38 ) ) GLOBAL_UNIT_ASSIGNED_CONTEXT ( ( #206, #138, #102 ) ) REPRESENTATION_CONTEXT ( 'NONE', 'WORKASPACE' ) );
#57 = ORIENTED_EDGE ( 'NONE', *, *, #90, .T. ) ;
#58 = CARTESIAN_POINT ( 'NONE',  ( 150.0698030180930400, 10.84999999999999400, -30.15000000000000200 ) ) ;
#59 = CARTESIAN_POINT ( 'NONE',  ( 210.3698030180930200, 71.14999999999996300, -30.14999999999998400 ) ) ;
#60 = ORIENTED_EDGE ( 'NONE', *, *, #133, .T. ) ;
#61 = DIRECTION ( 'NONE',  ( 0.0000000000000000000, 0.0000000000000000000, -1.000000000000000000 ) ) ;
#62 = DIRECTION ( 'NONE',  ( 1.000000000000000000, 0.0000000000000000000, -0.0000000000000000000 ) ) ;
#63 = EDGE_CURVE ( 'NONE', #80, #87, #180, .T. ) ;
#64 = DIRECTION ( 'NONE',  ( 1.000000000000000000, -0.0000000000000000000, 0.0000000000000000000 ) ) ;
#65 = SURFACE_STYLE_FILL_AREA ( #25 ) ;
#66 = CIRCLE ( 'NONE', #37, 30.15000000000000200 ) ;
#67 = DIRECTION ( 'NONE',  ( 0.7071067811865477900, -0.7071067811865473500, 0.0000000000000000000 ) ) ;
#68 = FILL_AREA_STYLE ('',( #94 ) ) ;
#69 = AXIS2_PLACEMENT_3D ( 'NONE', #212, #182, #35 ) ;
#70 = CARTESIAN_POINT ( 'NONE',  ( -149.9301969819069900, 10.85000000000000100, 0.0000000000000000000 ) ) ;
#71 = PRESENTATION_LAYER_ASSIGNMENT (  '', '', ( #158 ) ) ;
#72 =( LENGTH_UNIT ( ) NAMED_UNIT ( * ) SI_UNIT ( .MILLI., .METRE. ) );
#73 = ORIENTED_EDGE ( 'NONE', *, *, #83, .T. ) ;
#74 = ORIENTED_EDGE ( 'NONE', *, *, #31, .T. ) ;
#75 = VERTEX_POINT ( 'NONE', #178 ) ;
#76 = CARTESIAN_POINT ( 'NONE',  ( 206.3698030180930800, 67.14999999999996300, 28.14999999999999500 ) ) ;
#77 = DIRECTION ( 'NONE',  ( 0.0000000000000000000, 0.0000000000000000000, -1.000000000000000000 ) ) ;
#78 = CARTESIAN_POINT ( 'NONE',  ( 93.76980301809315700, -45.44999999999994600, 28.15000000000003400 ) ) ;
#79 = ADVANCED_FACE ( 'NONE', ( #166 ), #131, .F. ) ;
#80 = VERTEX_POINT ( 'NONE', #140 ) ;
#81 =( BOUNDED_CURVE ( )  B_SPLINE_CURVE ( 3, ( #171, #76, #88, #40 ),
 .UNSPECIFIED., .F., .F. ) 
 B_SPLINE_CURVE_WITH_KNOTS ( ( 4, 4 ),
 ( 4.712388980384689700, 7.853981633974482800 ),
 .UNSPECIFIED. ) 
 CURVE ( )  GEOMETRIC_REPRESENTATION_ITEM ( )  RATIONAL_B_SPLINE_CURVE ( ( 1.000000000000000000, 0.3333333333333333700, 0.3333333333333333700, 1.000000000000000000 ) ) 
 REPRESENTATION_ITEM ( '' )  );
#82 = DIRECTION ( 'NONE',  ( 0.0000000000000000000, 0.0000000000000000000, 1.000000000000000000 ) ) ;
#83 = EDGE_CURVE ( 'NONE', #84, #106, #113, .T. ) ;
#84 = VERTEX_POINT ( 'NONE', #172 ) ;
#85 = LINE ( 'NONE', #51, #149 ) ;
#86 = SURFACE_STYLE_FILL_AREA ( #68 ) ;
#87 = VERTEX_POINT ( 'NONE', #160 ) ;
#88 = CARTESIAN_POINT ( 'NONE',  ( 206.3698030180930800, 67.14999999999994900, -28.14999999999998400 ) ) ;
#89 = ADVANCED_FACE ( 'NONE', ( #29 ), #54, .T. ) ;
#90 = EDGE_CURVE ( 'NONE', #119, #109, #66, .T. ) ;
#91 = DIRECTION ( 'NONE',  ( 1.000000000000000000, -0.0000000000000000000, 0.0000000000000000000 ) ) ;
#92 = CARTESIAN_POINT ( 'NONE',  ( 89.76980301809305700, -49.44999999999997400, 30.15000000000001600 ) ) ;
#93 = LINE ( 'NONE', #157, #18 ) ;
#94 = FILL_AREA_STYLE_COLOUR ( '', #114 ) ;
#95 =( GEOMETRIC_REPRESENTATION_CONTEXT ( 3 ) GLOBAL_UNCERTAINTY_ASSIGNED_CONTEXT ( ( #198 ) ) GLOBAL_UNIT_ASSIGNED_CONTEXT ( ( #72, #96, #183 ) ) REPRESENTATION_CONTEXT ( 'NONE', 'WORKASPACE' ) );
#96 =( NAMED_UNIT ( * ) PLANE_ANGLE_UNIT ( ) SI_UNIT ( $, .RADIAN. ) );
#97 = ORIENTED_EDGE ( 'NONE', *, *, #181, .F. ) ;
#98 = CIRCLE ( 'NONE', #141, 30.15000000000000200 ) ;
#99 = COLOUR_RGB ( '',0.7921568627450980000, 0.8196078431372548800, 0.9333333333333333500 ) ;
#100 = ORIENTED_EDGE ( 'NONE', *, *, #63, .T. ) ;
#101 = FILL_AREA_STYLE_COLOUR ( '', #99 ) ;
#102 =( NAMED_UNIT ( * ) SI_UNIT ( $, .STERADIAN. ) SOLID_ANGLE_UNIT ( ) );
#103 = ORIENTED_EDGE ( 'NONE', *, *, #63, .F. ) ;
#104 = CARTESIAN_POINT ( 'NONE',  ( -149.9301969819069900, 10.84999999999999400, 0.0000000000000000000 ) ) ;
#105 = CARTESIAN_POINT ( 'NONE',  ( -149.9301969819069900, 10.84999999999999400, 0.0000000000000000000 ) ) ;
#106 = VERTEX_POINT ( 'NONE', #208 ) ;
#107 = CARTESIAN_POINT ( 'NONE',  ( 150.0698030180930400, 10.84999999999999800, 30.15000000000000200 ) ) ;
#108 = CYLINDRICAL_SURFACE ( 'NONE', #191, 30.15000000000000200 ) ;
#109 = VERTEX_POINT ( 'NONE', #30 ) ;
#110 =( NAMED_UNIT ( * ) PLANE_ANGLE_UNIT ( ) SI_UNIT ( $, .RADIAN. ) );
#111 = ORIENTED_EDGE ( 'NONE', *, *, #31, .F. ) ;
#112 = EDGE_CURVE ( 'NONE', #109, #119, #98, .T. ) ;
#113 = CIRCLE ( 'NONE', #213, 28.14999999999999900 ) ;
#114 = COLOUR_RGB ( '',0.7921568627450980000, 0.8196078431372548800, 0.9333333333333333500 ) ;
#115 = CLOSED_SHELL ( 'NONE', ( #89, #79, #34, #174, #28, #45 ) ) ;
#116 = PRODUCT_DEFINITION ( 'UNKNOWN', '', #129, #14 ) ;
#117 = EDGE_LOOP ( 'NONE', ( #159, #11, #103, #97 ) ) ;
#118 = PRODUCT ( 'Pipe cut profile test 2 1-1- TaylorSteel', 'Pipe cut profile test 2 1-1- TaylorSteel', '', ( #13 ) ) ;
#119 = VERTEX_POINT ( 'NONE', #142 ) ;
#120 = CARTESIAN_POINT ( 'NONE',  ( 150.0698030180930400, 10.84999999999999400, -30.15000000000000200 ) ) ;
#121 = CARTESIAN_POINT ( 'NONE',  ( -149.9301969819069900, 10.84999999999999400, -30.15000000000000200 ) ) ;
#122 = CARTESIAN_POINT ( 'NONE',  ( -149.9301969819069900, 10.85000000000000100, 0.0000000000000000000 ) ) ;
#123 = CARTESIAN_POINT ( 'NONE',  ( -149.9301969819069900, 10.85000000000000500, 28.14999999999999900 ) ) ;
#124 = ORIENTED_EDGE ( 'NONE', *, *, #112, .F. ) ;
#125 = DIRECTION ( 'NONE',  ( 0.0000000000000000000, 0.0000000000000000000, -1.000000000000000000 ) ) ;
#126 = APPLICATION_PROTOCOL_DEFINITION ( 'draft international standard', 'automotive_design', 1998, #128 ) ;
#127 = VECTOR ( 'NONE', #199, 1000.000000000000000 ) ;
#128 = APPLICATION_CONTEXT ( 'automotive_design' ) ;
#129 = PRODUCT_DEFINITION_FORMATION_WITH_SPECIFIED_SOURCE ( 'ANY', '', #118, .NOT_KNOWN. ) ;
#130 = ORIENTED_EDGE ( 'NONE', *, *, #112, .T. ) ;
#131 = CYLINDRICAL_SURFACE ( 'NONE', #151, 28.14999999999999900 ) ;
#132 = FACE_OUTER_BOUND ( 'NONE', #32, .T. ) ;
#133 = EDGE_CURVE ( 'NONE', #119, #1, #2, .T. ) ;
#134 = SURFACE_SIDE_STYLE ('',( #65 ) ) ;
#135 = CARTESIAN_POINT ( 'NONE',  ( 150.0698030180930400, 10.84999999999999800, 30.15000000000000200 ) ) ;
#136 = UNCERTAINTY_MEASURE_WITH_UNIT (LENGTH_MEASURE( 1.000000000000000100E-005 ), #10, 'distance_accuracy_value', 'NONE');
#137 = ORIENTED_EDGE ( 'NONE', *, *, #6, .F. ) ;
#138 =( NAMED_UNIT ( * ) PLANE_ANGLE_UNIT ( ) SI_UNIT ( $, .RADIAN. ) );
#139 = CARTESIAN_POINT ( 'NONE',  ( 119.9198030180930500, -19.29999999999997600, 35.00000000000000000 ) ) ;
#140 = CARTESIAN_POINT ( 'NONE',  ( 150.0698030180931000, 10.85000000000000100, -28.14999999999999900 ) ) ;
#141 = AXIS2_PLACEMENT_3D ( 'NONE', #105, #209, #8 ) ;
#142 = CARTESIAN_POINT ( 'NONE',  ( -149.9301969819069900, 10.84999999999999400, -30.15000000000000200 ) ) ;
#143 = CYLINDRICAL_SURFACE ( 'NONE', #205, 28.14999999999999900 ) ;
#144 = DIRECTION ( 'NONE',  ( 1.000000000000000000, -0.0000000000000000000, 0.0000000000000000000 ) ) ;
#145 = ORIENTED_EDGE ( 'NONE', *, *, #83, .F. ) ;
#146 = ADVANCED_BREP_SHAPE_REPRESENTATION ( 'Pipe cut profile test 2 1-1- TaylorSteel', ( #15, #170 ), #210 ) ;
#147 = DIRECTION ( 'NONE',  ( 1.000000000000000000, 0.0000000000000000000, -0.0000000000000000000 ) ) ;
#148 = EDGE_CURVE ( 'NONE', #106, #84, #203, .T. ) ;
#149 = VECTOR ( 'NONE', #9, 1000.000000000000000 ) ;
#150 =( BOUNDED_CURVE ( )  B_SPLINE_CURVE ( 3, ( #120, #59, #188, #135 ),
 .UNSPECIFIED., .F., .F. ) 
 B_SPLINE_CURVE_WITH_KNOTS ( ( 4, 4 ),
 ( 1.570796326794896600, 4.712388980384689700 ),
 .UNSPECIFIED. ) 
 CURVE ( )  GEOMETRIC_REPRESENTATION_ITEM ( )  RATIONAL_B_SPLINE_CURVE ( ( 1.000000000000000000, 0.3333333333333333700, 0.3333333333333333700, 1.000000000000000000 ) ) 
 REPRESENTATION_ITEM ( '' )  );
#151 = AXIS2_PLACEMENT_3D ( 'NONE', #122, #207, #47 ) ;
#152 = FACE_OUTER_BOUND ( 'NONE', #193, .T. ) ;
#153 = CARTESIAN_POINT ( 'NONE',  ( -149.9301969819069900, 10.84999999999999400, 0.0000000000000000000 ) ) ;
#154 = DIRECTION ( 'NONE',  ( 1.000000000000000000, 0.0000000000000000000, -0.0000000000000000000 ) ) ;
#155 = DIRECTION ( 'NONE',  ( 1.000000000000000000, -0.0000000000000000000, 0.0000000000000000000 ) ) ;
#156 = EDGE_LOOP ( 'NONE', ( #24, #124 ) ) ;
#157 = CARTESIAN_POINT ( 'NONE',  ( -149.9301969819069900, 10.84999999999999800, 30.15000000000000200 ) ) ;
#158 = STYLED_ITEM ( 'NONE', ( #184 ), #15 ) ;
#159 = ORIENTED_EDGE ( 'NONE', *, *, #148, .F. ) ;
#160 = CARTESIAN_POINT ( 'NONE',  ( 150.0698030180931000, 10.85000000000000500, 28.14999999999999900 ) ) ;
#161 = ORIENTED_EDGE ( 'NONE', *, *, #43, .F. ) ;
#162 =( NAMED_UNIT ( * ) SI_UNIT ( $, .STERADIAN. ) SOLID_ANGLE_UNIT ( ) );
#163 = EDGE_CURVE ( 'NONE', #106, #87, #23, .T. ) ;
#164 = ORIENTED_EDGE ( 'NONE', *, *, #22, .F. ) ;
#165 = PRODUCT_RELATED_PRODUCT_CATEGORY ( 'part', '', ( #118 ) ) ;
#166 = FACE_OUTER_BOUND ( 'NONE', #117, .T. ) ;
#167 =( BOUNDED_CURVE ( )  B_SPLINE_CURVE ( 3, ( #107, #92, #192, #5 ),
 .UNSPECIFIED., .F., .F. ) 
 B_SPLINE_CURVE_WITH_KNOTS ( ( 4, 4 ),
 ( 4.712388980384689700, 7.853981633974482800 ),
 .UNSPECIFIED. ) 
 CURVE ( )  GEOMETRIC_REPRESENTATION_ITEM ( )  RATIONAL_B_SPLINE_CURVE ( ( 1.000000000000000000, 0.3333333333333333700, 0.3333333333333333700, 1.000000000000000000 ) ) 
 REPRESENTATION_ITEM ( '' )  );
#168 = EDGE_LOOP ( 'NONE', ( #111, #130, #60, #161 ) ) ;
#169 = FACE_BOUND ( 'NONE', #39, .T. ) ;
#170 = AXIS2_PLACEMENT_3D ( 'NONE', #52, #82, #211 ) ;
#171 = CARTESIAN_POINT ( 'NONE',  ( 150.0698030180931000, 10.85000000000000500, 28.14999999999999900 ) ) ;
#172 = CARTESIAN_POINT ( 'NONE',  ( -149.9301969819069900, 10.85000000000000100, -28.14999999999999900 ) ) ;
#173 = PRODUCT_DEFINITION_SHAPE ( 'NONE', 'NONE',  #116 ) ;
#174 = ADVANCED_FACE ( 'NONE', ( #169, #195 ), #194, .T. ) ;
#175 = AXIS2_PLACEMENT_3D ( 'NONE', #196, #144, #125 ) ;
#176 = EDGE_LOOP ( 'NONE', ( #57, #74, #137, #187 ) ) ;
#177 = CARTESIAN_POINT ( 'NONE',  ( 150.0698030180931000, 10.85000000000000500, 28.14999999999999900 ) ) ;
#178 = CARTESIAN_POINT ( 'NONE',  ( 150.0698030180930400, 10.84999999999999800, 30.15000000000000200 ) ) ;
#179 = FACE_OUTER_BOUND ( 'NONE', #168, .T. ) ;
#180 =( BOUNDED_CURVE ( )  B_SPLINE_CURVE ( 3, ( #197, #7, #78, #177 ),
 .UNSPECIFIED., .F., .F. ) 
 B_SPLINE_CURVE_WITH_KNOTS ( ( 4, 4 ),
 ( 1.570796326794896800, 4.712388980384689700 ),
 .UNSPECIFIED. ) 
 CURVE ( )  GEOMETRIC_REPRESENTATION_ITEM ( )  RATIONAL_B_SPLINE_CURVE ( ( 1.000000000000000000, 0.3333333333333333700, 0.3333333333333333700, 1.000000000000000000 ) ) 
 REPRESENTATION_ITEM ( '' )  );
#181 = EDGE_CURVE ( 'NONE', #84, #80, #85, .T. ) ;
#182 = DIRECTION ( 'NONE',  ( -1.000000000000000000, 0.0000000000000000000, 0.0000000000000000000 ) ) ;
#183 =( NAMED_UNIT ( * ) SI_UNIT ( $, .STERADIAN. ) SOLID_ANGLE_UNIT ( ) );
#184 = PRESENTATION_STYLE_ASSIGNMENT (( #185 ) ) ;
#185 = SURFACE_STYLE_USAGE ( .BOTH. , #134 ) ;
#186 = FACE_BOUND ( 'NONE', #36, .T. ) ;
#187 = ORIENTED_EDGE ( 'NONE', *, *, #133, .F. ) ;
#188 = CARTESIAN_POINT ( 'NONE',  ( 210.3698030180930200, 71.14999999999996300, 30.14999999999999500 ) ) ;
#189 = PRESENTATION_STYLE_ASSIGNMENT (( #33 ) ) ;
#190 = DIRECTION ( 'NONE',  ( 0.0000000000000000000, 0.0000000000000000000, -1.000000000000000000 ) ) ;
#191 = AXIS2_PLACEMENT_3D ( 'NONE', #153, #155, #41 ) ;
#192 = CARTESIAN_POINT ( 'NONE',  ( 89.76980301809305700, -49.44999999999998900, -30.14999999999997400 ) ) ;
#193 = EDGE_LOOP ( 'NONE', ( #53, #201 ) ) ;
#194 = PLANE ( 'NONE',  #69 ) ;
#195 = FACE_OUTER_BOUND ( 'NONE', #156, .T. ) ;
#196 = CARTESIAN_POINT ( 'NONE',  ( -149.9301969819069900, 10.84999999999999400, 0.0000000000000000000 ) ) ;
#197 = CARTESIAN_POINT ( 'NONE',  ( 150.0698030180931000, 10.85000000000000100, -28.14999999999999900 ) ) ;
#198 = UNCERTAINTY_MEASURE_WITH_UNIT (LENGTH_MEASURE( 1.000000000000000100E-005 ), #72, 'distance_accuracy_value', 'NONE');
#199 = DIRECTION ( 'NONE',  ( 1.000000000000000000, 0.0000000000000000000, -0.0000000000000000000 ) ) ;
#200 = SURFACE_SIDE_STYLE ('',( #86 ) ) ;
#201 = ORIENTED_EDGE ( 'NONE', *, *, #43, .T. ) ;
#202 = AXIS2_PLACEMENT_3D ( 'NONE', #70, #147, #49 ) ;
#203 = CIRCLE ( 'NONE', #202, 28.14999999999999900 ) ;
#204 = MECHANICAL_DESIGN_GEOMETRIC_PRESENTATION_REPRESENTATION (  '', ( #50 ), #95 ) ;
#205 = AXIS2_PLACEMENT_3D ( 'NONE', #21, #154, #61 ) ;
#206 =( LENGTH_UNIT ( ) NAMED_UNIT ( * ) SI_UNIT ( .MILLI., .METRE. ) );
#207 = DIRECTION ( 'NONE',  ( 1.000000000000000000, 0.0000000000000000000, -0.0000000000000000000 ) ) ;
#208 = CARTESIAN_POINT ( 'NONE',  ( -149.9301969819069900, 10.85000000000000500, 28.14999999999999900 ) ) ;
#209 = DIRECTION ( 'NONE',  ( 1.000000000000000000, -0.0000000000000000000, 0.0000000000000000000 ) ) ;
#210 =( GEOMETRIC_REPRESENTATION_CONTEXT ( 3 ) GLOBAL_UNCERTAINTY_ASSIGNED_CONTEXT ( ( #136 ) ) GLOBAL_UNIT_ASSIGNED_CONTEXT ( ( #10, #110, #162 ) ) REPRESENTATION_CONTEXT ( 'NONE', 'WORKASPACE' ) );
#211 = DIRECTION ( 'NONE',  ( 1.000000000000000000, 0.0000000000000000000, 0.0000000000000000000 ) ) ;
#212 = CARTESIAN_POINT ( 'NONE',  ( -149.9301969819069900, -19.90300000000000200, -30.75300000000000000 ) ) ;
#213 = AXIS2_PLACEMENT_3D ( 'NONE', #42, #62, #190 ) ;
#214 = APPLICATION_CONTEXT ( 'automotive_design' ) ;
ENDSEC;
END-ISO-10303-21;
