ISO-10303-21;
HEADER;
FILE_DESCRIPTION (( 'STEP AP214' ),
    '1' );
FILE_NAME ('Pipe cut profile test 2 2 TaylorSteel.STEP',
    '2018-08-27T08:41:38',
    ( '' ),
    ( '' ),
    'SwSTEP 2.0',
    'SolidWorks 2016',
    '' );
FILE_SCHEMA (( 'AUTOMOTIVE_DESIGN' ));
ENDSEC;

DATA;
#1 = FACE_OUTER_BOUND ( 'NONE', #209, .T. ) ;
#2 = CARTESIAN_POINT ( 'NONE',  ( -149.9301969819069900, -293.1499999999999800, -28.14999999999988500 ) ) ;
#3 = VERTEX_POINT ( 'NONE', #18 ) ;
#4 = DIRECTION ( 'NONE',  ( 0.0000000000000000000, 0.0000000000000000000, -1.000000000000000000 ) ) ;
#5 =( BOUNDED_CURVE ( )  B_SPLINE_CURVE ( 3, ( #42, #20, #178, #152 ),
 .UNSPECIFIED., .F., .T. ) 
 B_SPLINE_CURVE_WITH_KNOTS ( ( 4, 4 ),
 ( 4.712388980384689700, 7.853981633974482800 ),
 .UNSPECIFIED. ) 
 CURVE ( )  GEOMETRIC_REPRESENTATION_ITEM ( )  RATIONAL_B_SPLINE_CURVE ( ( 1.000000000000000000, 0.3333333333333333700, 0.3333333333333333700, 1.000000000000000000 ) ) 
 REPRESENTATION_ITEM ( '' )  );
#6 = DIRECTION ( 'NONE',  ( 1.000000000000000000, -0.0000000000000000000, 0.0000000000000000000 ) ) ;
#7 = DIRECTION ( 'NONE',  ( 1.000000000000000000, 0.0000000000000000000, -0.0000000000000000000 ) ) ;
#8 = CARTESIAN_POINT ( 'NONE',  ( -149.9301969819069900, -293.1499999999999800, -30.14999999999997000 ) ) ;
#9 = FILL_AREA_STYLE ('',( #192 ) ) ;
#10 = CARTESIAN_POINT ( 'NONE',  ( 206.3698030180915500, -236.8500000000000800, -28.14999999999989600 ) ) ;
#11 = STYLED_ITEM ( 'NONE', ( #118 ), #167 ) ;
#12 = CIRCLE ( 'NONE', #112, 30.14999999999997000 ) ;
#13 = EDGE_CURVE ( 'NONE', #203, #83, #71, .T. ) ;
#14 = ORIENTED_EDGE ( 'NONE', *, *, #111, .T. ) ;
#15 = PRESENTATION_LAYER_ASSIGNMENT (  '', '', ( #11 ) ) ;
#16 = ORIENTED_EDGE ( 'NONE', *, *, #202, .T. ) ;
#17 = CARTESIAN_POINT ( 'NONE',  ( 150.0698030180925600, -293.1499999999999800, 30.14999999999997000 ) ) ;
#18 = CARTESIAN_POINT ( 'NONE',  ( -149.9301969819069900, -293.1499999999999800, 30.14999999999997000 ) ) ;
#19 = DIRECTION ( 'NONE',  ( 1.000000000000000000, 0.0000000000000000000, -0.0000000000000000000 ) ) ;
#20 = CARTESIAN_POINT ( 'NONE',  ( 210.3698030180915200, -232.8500000000000500, 30.14999999999998400 ) ) ;
#21 = DIRECTION ( 'NONE',  ( 0.7071067811865418000, 0.7071067811865532300, 0.0000000000000000000 ) ) ;
#22 = VECTOR ( 'NONE', #30, 1000.000000000000000 ) ;
#23 = EDGE_CURVE ( 'NONE', #83, #138, #104, .T. ) ;
#24 = CARTESIAN_POINT ( 'NONE',  ( -149.9301969819069900, -293.1499999999999800, 5.551115123125777700E-014 ) ) ;
#25 = AXIS2_PLACEMENT_3D ( 'NONE', #114, #190, #63 ) ;
#26 = ORIENTED_EDGE ( 'NONE', *, *, #111, .F. ) ;
#27 = UNCERTAINTY_MEASURE_WITH_UNIT (LENGTH_MEASURE( 1.000000000000000100E-005 ), #201, 'distance_accuracy_value', 'NONE');
#28 = MECHANICAL_DESIGN_GEOMETRIC_PRESENTATION_REPRESENTATION (  '', ( #11 ), #33 ) ;
#29 = COLOUR_RGB ( '',0.7921568627450980000, 0.8196078431372548800, 0.9333333333333333500 ) ;
#30 = DIRECTION ( 'NONE',  ( 1.000000000000000000, -0.0000000000000000000, 0.0000000000000000000 ) ) ;
#31 = COLOUR_RGB ( '',0.7921568627450980000, 0.8196078431372548800, 0.9333333333333333500 ) ;
#32 = EDGE_LOOP ( 'NONE', ( #106, #64 ) ) ;
#33 =( GEOMETRIC_REPRESENTATION_CONTEXT ( 3 ) GLOBAL_UNCERTAINTY_ASSIGNED_CONTEXT ( ( #155 ) ) GLOBAL_UNIT_ASSIGNED_CONTEXT ( ( #48, #99, #139 ) ) REPRESENTATION_CONTEXT ( 'NONE', 'WORKASPACE' ) );
#34 = CARTESIAN_POINT ( 'NONE',  ( 150.0698030180925600, -293.1499999999999800, 28.14999999999999500 ) ) ;
#35 = ORIENTED_EDGE ( 'NONE', *, *, #213, .F. ) ;
#36 = AXIS2_PLACEMENT_3D ( 'NONE', #41, #189, #21 ) ;
#37 = DIRECTION ( 'NONE',  ( -1.000000000000000000, 0.0000000000000000000, 0.0000000000000000000 ) ) ;
#38 = DIRECTION ( 'NONE',  ( 1.000000000000000000, -0.0000000000000000000, 0.0000000000000000000 ) ) ;
#39 = AXIS2_PLACEMENT_3D ( 'NONE', #207, #85, #101 ) ;
#40 = EDGE_LOOP ( 'NONE', ( #166, #172, #94, #194 ) ) ;
#41 = CARTESIAN_POINT ( 'NONE',  ( 119.3131965653720000, -323.9066064527210100, 30.75300000000000000 ) ) ;
#42 = CARTESIAN_POINT ( 'NONE',  ( 150.0698030180925600, -293.1499999999999800, 30.14999999999997000 ) ) ;
#43 = DIRECTION ( 'NONE',  ( 1.000000000000000000, 0.0000000000000000000, -0.0000000000000000000 ) ) ;
#44 = CARTESIAN_POINT ( 'NONE',  ( 150.0698030180925600, -293.1499999999999800, -28.14999999999988500 ) ) ;
#45 = CARTESIAN_POINT ( 'NONE',  ( 150.0698030180925600, -293.1499999999999800, -30.14999999999997000 ) ) ;
#46 = SURFACE_SIDE_STYLE ('',( #121 ) ) ;
#47 = FACE_OUTER_BOUND ( 'NONE', #127, .T. ) ;
#48 =( LENGTH_UNIT ( ) NAMED_UNIT ( * ) SI_UNIT ( .MILLI., .METRE. ) );
#49 = APPLICATION_CONTEXT ( 'automotive_design' ) ;
#50 = ORIENTED_EDGE ( 'NONE', *, *, #23, .F. ) ;
#51 = SHAPE_DEFINITION_REPRESENTATION ( #185, #167 ) ;
#52 = AXIS2_PLACEMENT_3D ( 'NONE', #197, #38, #55 ) ;
#53 = DIRECTION ( 'NONE',  ( 1.000000000000000000, 0.0000000000000000000, -0.0000000000000000000 ) ) ;
#54 = CARTESIAN_POINT ( 'NONE',  ( -149.9301969819069900, -293.1499999999999800, 0.0000000000000000000 ) ) ;
#55 = DIRECTION ( 'NONE',  ( 0.0000000000000000000, 0.0000000000000000000, -1.000000000000000000 ) ) ;
#56 = CARTESIAN_POINT ( 'NONE',  ( 93.76980301809358300, -349.4499999999998200, 28.15000000000000200 ) ) ;
#57 = DIRECTION ( 'NONE',  ( 0.0000000000000000000, 0.0000000000000000000, -1.000000000000000000 ) ) ;
#58 = CYLINDRICAL_SURFACE ( 'NONE', #52, 30.14999999999997000 ) ;
#59 = DIRECTION ( 'NONE',  ( 0.0000000000000000000, 0.0000000000000000000, -1.000000000000000000 ) ) ;
#60 = ADVANCED_FACE ( 'NONE', ( #47 ), #181, .T. ) ;
#61 = CARTESIAN_POINT ( 'NONE',  ( -149.9301969819069900, -293.1499999999999800, 0.0000000000000000000 ) ) ;
#62 = AXIS2_PLACEMENT_3D ( 'NONE', #61, #6, #4 ) ;
#63 = DIRECTION ( 'NONE',  ( 0.0000000000000000000, 0.0000000000000000000, -1.000000000000000000 ) ) ;
#64 = ORIENTED_EDGE ( 'NONE', *, *, #13, .T. ) ;
#65 = ORIENTED_EDGE ( 'NONE', *, *, #143, .F. ) ;
#66 = CARTESIAN_POINT ( 'NONE',  ( -149.9301969819069900, -293.1499999999999800, 30.14999999999997000 ) ) ;
#67 = MECHANICAL_DESIGN_GEOMETRIC_PRESENTATION_REPRESENTATION (  '', ( #214 ), #140 ) ;
#68 = ORIENTED_EDGE ( 'NONE', *, *, #123, .T. ) ;
#69 = ORIENTED_EDGE ( 'NONE', *, *, #109, .F. ) ;
#70 = ORIENTED_EDGE ( 'NONE', *, *, #13, .F. ) ;
#71 = CIRCLE ( 'NONE', #124, 28.14999999999993800 ) ;
#72 = ORIENTED_EDGE ( 'NONE', *, *, #88, .F. ) ;
#73 = DIRECTION ( 'NONE',  ( 1.000000000000000000, -0.0000000000000000000, 0.0000000000000000000 ) ) ;
#74 = ADVANCED_FACE ( 'NONE', ( #184, #1 ), #173, .T. ) ;
#75 = DIRECTION ( 'NONE',  ( 1.000000000000000000, -0.0000000000000000000, 0.0000000000000000000 ) ) ;
#76 = FILL_AREA_STYLE_COLOUR ( '', #29 ) ;
#77 = EDGE_CURVE ( 'NONE', #180, #161, #146, .T. ) ;
#78 = SURFACE_SIDE_STYLE ('',( #170 ) ) ;
#79 = ADVANCED_FACE ( 'NONE', ( #137 ), #58, .T. ) ;
#80 = SURFACE_STYLE_USAGE ( .BOTH. , #78 ) ;
#81 = FACE_OUTER_BOUND ( 'NONE', #132, .T. ) ;
#82 = CARTESIAN_POINT ( 'NONE',  ( -149.9301969819069900, -293.1499999999999800, 28.14999999999999500 ) ) ;
#83 = VERTEX_POINT ( 'NONE', #2 ) ;
#84 = APPLICATION_PROTOCOL_DEFINITION ( 'draft international standard', 'automotive_design', 1998, #117 ) ;
#85 = DIRECTION ( 'NONE',  ( 0.0000000000000000000, 0.0000000000000000000, 1.000000000000000000 ) ) ;
#86 =( NAMED_UNIT ( * ) SI_UNIT ( $, .STERADIAN. ) SOLID_ANGLE_UNIT ( ) );
#87 = CYLINDRICAL_SURFACE ( 'NONE', #199, 28.14999999999993800 ) ;
#88 = EDGE_CURVE ( 'NONE', #91, #138, #210, .T. ) ;
#89 = FACE_OUTER_BOUND ( 'NONE', #154, .T. ) ;
#90 = VECTOR ( 'NONE', #43, 1000.000000000000000 ) ;
#91 = VERTEX_POINT ( 'NONE', #125 ) ;
#92 = PRODUCT_DEFINITION ( 'UNKNOWN', '', #122, #120 ) ;
#93 = EDGE_CURVE ( 'NONE', #83, #203, #156, .T. ) ;
#94 = ORIENTED_EDGE ( 'NONE', *, *, #77, .T. ) ;
#95 =( NAMED_UNIT ( * ) PLANE_ANGLE_UNIT ( ) SI_UNIT ( $, .RADIAN. ) );
#96 = CARTESIAN_POINT ( 'NONE',  ( 89.76980301809359700, -353.4499999999999300, 30.14999999999996300 ) ) ;
#97 = CARTESIAN_POINT ( 'NONE',  ( 150.0698030180925600, -293.1499999999999800, 30.14999999999997000 ) ) ;
#98 = AXIS2_PLACEMENT_3D ( 'NONE', #145, #37, #128 ) ;
#99 =( NAMED_UNIT ( * ) PLANE_ANGLE_UNIT ( ) SI_UNIT ( $, .RADIAN. ) );
#100 =( LENGTH_UNIT ( ) NAMED_UNIT ( * ) SI_UNIT ( .MILLI., .METRE. ) );
#101 = DIRECTION ( 'NONE',  ( 1.000000000000000000, 0.0000000000000000000, 0.0000000000000000000 ) ) ;
#102 = CARTESIAN_POINT ( 'NONE',  ( 206.3698030180915500, -236.8500000000000800, 28.14999999999999500 ) ) ;
#103 = EDGE_CURVE ( 'NONE', #3, #180, #12, .T. ) ;
#104 = LINE ( 'NONE', #130, #153 ) ;
#105 =( BOUNDED_CURVE ( )  B_SPLINE_CURVE ( 3, ( #44, #10, #102, #141 ),
 .UNSPECIFIED., .F., .F. ) 
 B_SPLINE_CURVE_WITH_KNOTS ( ( 4, 4 ),
 ( 4.712388980384689700, 7.853981633974482800 ),
 .UNSPECIFIED. ) 
 CURVE ( )  GEOMETRIC_REPRESENTATION_ITEM ( )  RATIONAL_B_SPLINE_CURVE ( ( 1.000000000000000000, 0.3333333333333333700, 0.3333333333333333700, 1.000000000000000000 ) ) 
 REPRESENTATION_ITEM ( '' )  );
#106 = ORIENTED_EDGE ( 'NONE', *, *, #93, .T. ) ;
#107 = VERTEX_POINT ( 'NONE', #17 ) ;
#108 = CARTESIAN_POINT ( 'NONE',  ( 93.76980301809358300, -349.4499999999998200, -28.14999999999987400 ) ) ;
#109 = EDGE_CURVE ( 'NONE', #180, #3, #126, .T. ) ;
#110 = PRODUCT ( 'Pipe cut profile test 2 2 TaylorSteel', 'Pipe cut profile test 2 2 TaylorSteel', '', ( #191 ) ) ;
#111 = EDGE_CURVE ( 'NONE', #203, #91, #175, .T. ) ;
#112 = AXIS2_PLACEMENT_3D ( 'NONE', #136, #75, #151 ) ;
#113 = CARTESIAN_POINT ( 'NONE',  ( -149.9301969819069900, -293.1499999999999800, 28.14999999999999500 ) ) ;
#114 = CARTESIAN_POINT ( 'NONE',  ( -149.9301969819069900, -293.1499999999999800, 5.551115123125777700E-014 ) ) ;
#115 = ORIENTED_EDGE ( 'NONE', *, *, #103, .F. ) ;
#116 = CLOSED_SHELL ( 'NONE', ( #60, #200, #79, #148, #74, #150 ) ) ;
#117 = APPLICATION_CONTEXT ( 'automotive_design' ) ;
#118 = PRESENTATION_STYLE_ASSIGNMENT (( #206 ) ) ;
#119 =( BOUNDED_CURVE ( )  B_SPLINE_CURVE ( 3, ( #45, #134, #96, #97 ),
 .UNSPECIFIED., .F., .T. ) 
 B_SPLINE_CURVE_WITH_KNOTS ( ( 4, 4 ),
 ( 1.570796326794896600, 4.712388980384689700 ),
 .UNSPECIFIED. ) 
 CURVE ( )  GEOMETRIC_REPRESENTATION_ITEM ( )  RATIONAL_B_SPLINE_CURVE ( ( 1.000000000000000000, 0.3333333333333333700, 0.3333333333333333700, 1.000000000000000000 ) ) 
 REPRESENTATION_ITEM ( '' )  );
#120 = PRODUCT_DEFINITION_CONTEXT ( 'detailed design', #49, 'design' ) ;
#121 = SURFACE_STYLE_FILL_AREA ( #9 ) ;
#122 = PRODUCT_DEFINITION_FORMATION_WITH_SPECIFIED_SOURCE ( 'ANY', '', #110, .NOT_KNOWN. ) ;
#123 = EDGE_CURVE ( 'NONE', #107, #161, #5, .T. ) ;
#124 = AXIS2_PLACEMENT_3D ( 'NONE', #147, #53, #57 ) ;
#125 = CARTESIAN_POINT ( 'NONE',  ( 150.0698030180925600, -293.1499999999999800, 28.14999999999999500 ) ) ;
#126 = CIRCLE ( 'NONE', #62, 30.14999999999997000 ) ;
#127 = EDGE_LOOP ( 'NONE', ( #158, #16, #68, #157 ) ) ;
#128 = DIRECTION ( 'NONE',  ( 0.0000000000000000000, 0.0000000000000000000, 1.000000000000000000 ) ) ;
#129 = UNCERTAINTY_MEASURE_WITH_UNIT (LENGTH_MEASURE( 1.000000000000000100E-005 ), #100, 'distance_accuracy_value', 'NONE');
#130 = CARTESIAN_POINT ( 'NONE',  ( -149.9301969819069900, -293.1499999999999800, -28.14999999999988500 ) ) ;
#131 = DIRECTION ( 'NONE',  ( 0.0000000000000000000, 0.0000000000000000000, -1.000000000000000000 ) ) ;
#132 = EDGE_LOOP ( 'NONE', ( #26, #204, #171, #176 ) ) ;
#133 = PLANE ( 'NONE',  #36 ) ;
#134 = CARTESIAN_POINT ( 'NONE',  ( 89.76980301809359700, -353.4499999999999300, -30.14999999999997400 ) ) ;
#135 = ORIENTED_EDGE ( 'NONE', *, *, #123, .F. ) ;
#136 = CARTESIAN_POINT ( 'NONE',  ( -149.9301969819069900, -293.1499999999999800, 0.0000000000000000000 ) ) ;
#137 = FACE_OUTER_BOUND ( 'NONE', #40, .T. ) ;
#138 = VERTEX_POINT ( 'NONE', #187 ) ;
#139 =( NAMED_UNIT ( * ) SI_UNIT ( $, .STERADIAN. ) SOLID_ANGLE_UNIT ( ) );
#140 =( GEOMETRIC_REPRESENTATION_CONTEXT ( 3 ) GLOBAL_UNCERTAINTY_ASSIGNED_CONTEXT ( ( #27 ) ) GLOBAL_UNIT_ASSIGNED_CONTEXT ( ( #201, #95, #149 ) ) REPRESENTATION_CONTEXT ( 'NONE', 'WORKASPACE' ) );
#141 = CARTESIAN_POINT ( 'NONE',  ( 150.0698030180925600, -293.1499999999999800, 28.14999999999999500 ) ) ;
#142 = LINE ( 'NONE', #66, #22 ) ;
#143 = EDGE_CURVE ( 'NONE', #161, #107, #119, .T. ) ;
#144 = PRESENTATION_LAYER_ASSIGNMENT (  '', '', ( #214 ) ) ;
#145 = CARTESIAN_POINT ( 'NONE',  ( -149.9301969819069900, -323.9030000000000800, -30.75300000000000000 ) ) ;
#146 = LINE ( 'NONE', #186, #212 ) ;
#147 = CARTESIAN_POINT ( 'NONE',  ( -149.9301969819069900, -293.1499999999999800, 5.551115123125777700E-014 ) ) ;
#148 = ADVANCED_FACE ( 'NONE', ( #208, #195 ), #133, .F. ) ;
#149 =( NAMED_UNIT ( * ) SI_UNIT ( $, .STERADIAN. ) SOLID_ANGLE_UNIT ( ) );
#150 = ADVANCED_FACE ( 'NONE', ( #81 ), #160, .F. ) ;
#151 = DIRECTION ( 'NONE',  ( 0.0000000000000000000, 0.0000000000000000000, -1.000000000000000000 ) ) ;
#152 = CARTESIAN_POINT ( 'NONE',  ( 150.0698030180925600, -293.1499999999999800, -30.14999999999997000 ) ) ;
#153 = VECTOR ( 'NONE', #19, 1000.000000000000000 ) ;
#154 = EDGE_LOOP ( 'NONE', ( #70, #14, #162, #50 ) ) ;
#155 = UNCERTAINTY_MEASURE_WITH_UNIT (LENGTH_MEASURE( 1.000000000000000100E-005 ), #48, 'distance_accuracy_value', 'NONE');
#156 = CIRCLE ( 'NONE', #25, 28.14999999999993800 ) ;
#157 = ORIENTED_EDGE ( 'NONE', *, *, #77, .F. ) ;
#158 = ORIENTED_EDGE ( 'NONE', *, *, #109, .T. ) ;
#159 = AXIS2_PLACEMENT_3D ( 'NONE', #198, #7, #165 ) ;
#160 = CYLINDRICAL_SURFACE ( 'NONE', #159, 28.14999999999993800 ) ;
#161 = VERTEX_POINT ( 'NONE', #164 ) ;
#162 = ORIENTED_EDGE ( 'NONE', *, *, #88, .T. ) ;
#163 = EDGE_LOOP ( 'NONE', ( #65, #135 ) ) ;
#164 = CARTESIAN_POINT ( 'NONE',  ( 150.0698030180925600, -293.1499999999999800, -30.14999999999997000 ) ) ;
#165 = DIRECTION ( 'NONE',  ( 0.0000000000000000000, 0.0000000000000000000, -1.000000000000000000 ) ) ;
#166 = ORIENTED_EDGE ( 'NONE', *, *, #202, .F. ) ;
#167 = ADVANCED_BREP_SHAPE_REPRESENTATION ( 'Pipe cut profile test 2 2 TaylorSteel', ( #168, #39 ), #179 ) ;
#168 = MANIFOLD_SOLID_BREP ( 'Imported9', #116 ) ;
#169 = APPLICATION_PROTOCOL_DEFINITION ( 'draft international standard', 'automotive_design', 1998, #49 ) ;
#170 = SURFACE_STYLE_FILL_AREA ( #188 ) ;
#171 = ORIENTED_EDGE ( 'NONE', *, *, #23, .T. ) ;
#172 = ORIENTED_EDGE ( 'NONE', *, *, #103, .T. ) ;
#173 = PLANE ( 'NONE',  #98 ) ;
#174 = CARTESIAN_POINT ( 'NONE',  ( 150.0698030180925600, -293.1499999999999800, -28.14999999999988500 ) ) ;
#175 = LINE ( 'NONE', #82, #90 ) ;
#176 = ORIENTED_EDGE ( 'NONE', *, *, #213, .T. ) ;
#177 = DIRECTION ( 'NONE',  ( 1.000000000000000000, 0.0000000000000000000, -0.0000000000000000000 ) ) ;
#178 = CARTESIAN_POINT ( 'NONE',  ( 210.3698030180915200, -232.8500000000000500, -30.14999999999996700 ) ) ;
#179 =( GEOMETRIC_REPRESENTATION_CONTEXT ( 3 ) GLOBAL_UNCERTAINTY_ASSIGNED_CONTEXT ( ( #129 ) ) GLOBAL_UNIT_ASSIGNED_CONTEXT ( ( #100, #205, #86 ) ) REPRESENTATION_CONTEXT ( 'NONE', 'WORKASPACE' ) );
#180 = VERTEX_POINT ( 'NONE', #8 ) ;
#181 = CYLINDRICAL_SURFACE ( 'NONE', #182, 30.14999999999997000 ) ;
#182 = AXIS2_PLACEMENT_3D ( 'NONE', #54, #73, #131 ) ;
#183 = DIRECTION ( 'NONE',  ( 1.000000000000000000, -0.0000000000000000000, 0.0000000000000000000 ) ) ;
#184 = FACE_BOUND ( 'NONE', #32, .T. ) ;
#185 = PRODUCT_DEFINITION_SHAPE ( 'NONE', 'NONE',  #92 ) ;
#186 = CARTESIAN_POINT ( 'NONE',  ( -149.9301969819069900, -293.1499999999999800, -30.14999999999997000 ) ) ;
#187 = CARTESIAN_POINT ( 'NONE',  ( 150.0698030180925600, -293.1499999999999800, -28.14999999999988500 ) ) ;
#188 = FILL_AREA_STYLE ('',( #76 ) ) ;
#189 = DIRECTION ( 'NONE',  ( -0.7071067811865532300, 0.7071067811865418000, 0.0000000000000000000 ) ) ;
#190 = DIRECTION ( 'NONE',  ( 1.000000000000000000, 0.0000000000000000000, -0.0000000000000000000 ) ) ;
#191 = PRODUCT_CONTEXT ( 'NONE', #117, 'mechanical' ) ;
#192 = FILL_AREA_STYLE_COLOUR ( '', #31 ) ;
#193 = PRESENTATION_STYLE_ASSIGNMENT (( #80 ) ) ;
#194 = ORIENTED_EDGE ( 'NONE', *, *, #143, .T. ) ;
#195 = FACE_OUTER_BOUND ( 'NONE', #163, .T. ) ;
#196 = EDGE_LOOP ( 'NONE', ( #35, #72 ) ) ;
#197 = CARTESIAN_POINT ( 'NONE',  ( -149.9301969819069900, -293.1499999999999800, 0.0000000000000000000 ) ) ;
#198 = CARTESIAN_POINT ( 'NONE',  ( -149.9301969819069900, -293.1499999999999800, 5.551115123125777700E-014 ) ) ;
#199 = AXIS2_PLACEMENT_3D ( 'NONE', #24, #177, #59 ) ;
#200 = ADVANCED_FACE ( 'NONE', ( #89 ), #87, .F. ) ;
#201 =( LENGTH_UNIT ( ) NAMED_UNIT ( * ) SI_UNIT ( .MILLI., .METRE. ) );
#202 = EDGE_CURVE ( 'NONE', #3, #107, #142, .T. ) ;
#203 = VERTEX_POINT ( 'NONE', #113 ) ;
#204 = ORIENTED_EDGE ( 'NONE', *, *, #93, .F. ) ;
#205 =( NAMED_UNIT ( * ) PLANE_ANGLE_UNIT ( ) SI_UNIT ( $, .RADIAN. ) );
#206 = SURFACE_STYLE_USAGE ( .BOTH. , #46 ) ;
#207 = CARTESIAN_POINT ( 'NONE',  ( 0.0000000000000000000, 0.0000000000000000000, 0.0000000000000000000 ) ) ;
#208 = FACE_BOUND ( 'NONE', #196, .T. ) ;
#209 = EDGE_LOOP ( 'NONE', ( #69, #115 ) ) ;
#210 =( BOUNDED_CURVE ( )  B_SPLINE_CURVE ( 3, ( #34, #56, #108, #174 ),
 .UNSPECIFIED., .F., .T. ) 
 B_SPLINE_CURVE_WITH_KNOTS ( ( 4, 4 ),
 ( 1.570796326794896600, 4.712388980384689700 ),
 .UNSPECIFIED. ) 
 CURVE ( )  GEOMETRIC_REPRESENTATION_ITEM ( )  RATIONAL_B_SPLINE_CURVE ( ( 1.000000000000000000, 0.3333333333333333700, 0.3333333333333333700, 1.000000000000000000 ) ) 
 REPRESENTATION_ITEM ( '' )  );
#211 = PRODUCT_RELATED_PRODUCT_CATEGORY ( 'part', '', ( #110 ) ) ;
#212 = VECTOR ( 'NONE', #183, 1000.000000000000000 ) ;
#213 = EDGE_CURVE ( 'NONE', #138, #91, #105, .T. ) ;
#214 = STYLED_ITEM ( 'NONE', ( #193 ), #168 ) ;
ENDSEC;
END-ISO-10303-21;
