 0
SECTION
 2
HEADER
 9
$ACADVER
 1
AC1014
 9
$ACADMAINTVER
 70
     0
 9
$INSBASE
 10
0.00000000
 20
0.00000000
 30
0.00000000
 9
$EXTMIN
 10
-382.33567584
 20
-4436.32606293
 30
-247.51816028
 9
$EXTMAX
 10
1842.67367810
 20
860.01825157
 30
478.23356157
 9
$LIMMIN
 10
-382.33567584
 20
-4436.32606293
 9
$LIMMAX
 10
1842.67367810
 20
860.01825157
 9
$ORTHOMODE
 70
     0
 9
$REGENMODE
 70
     1
 9
$FILLMODE
 70
     1
 9
$QTEXTMODE
 70
     0
 9
$MIRRTEXT
 70
     0
 9
$LTSCALE
 40
1.00000000
 9
$ATTMODE
 70
     1
 9
$TEXTSIZE
 40
5.00000000
 9
$TRACEWID
 40
10.00000000
 9
$TEXTSTYLE
 7
STANDARD
 9
$CLAYER
 8
0
 9
$CELTYPE
 6
BYLAYER
 9
$CECOLOR
 62
     7
 9
$CELTSCALE
 40
1.00000000
 9
$DISPSILH
 70
     0
 9
$LUNITS
 70
     2
 9
$LUPREC
 70
     8
 9
$SKETCHINC
 40
1.00000000
 9
$FILLETRAD
 40
0.00000000
 9
$AUNITS
 70
     0
 9
$AUPREC
 70
     8
 9
$MENU
 1
ACAD
 9
$ELEVATION
 40
0.00000000
 9
$PELEVATION
 40
0.00000000
 9
$THICKNESS
 40
0.00000000
 9
$LIMCHECK
 70
     0
 9
$CHAMFERA
 40
0.00000000
 9
$CHAMFERB
 40
0.00000000
 9
$CHAMFERC
 40
0.00000000
 9
$CHAMFERD
 40
0.00000000
 9
$SKPOLY
 70
     0
 9
$HANDLING
 70
     1
 9
$HANDSEED
 5
247C
 9
$USRTIMER
 70
     0
 9
$ANGBASE
 50
0.00000000
 9
$ANGDIR
 70
     0
 9
$PDMODE
 70
     0
 9
$PDSIZE
 40
0.00000000
 9
$PLINEWID
 40
0.00000000
 9
$UCSNAME
 2

 9
$UCSORG
 10
0.00000000
 20
0.00000000
 30
0.00000000
 9
$UCSXDIR
 10
1.00000000
 20
0.00000000
 30
0.00000000
 9
$UCSYDIR
 10
0.00000000
 20
1.00000000
 30
0.00000000
 9
$PUCSNAME
 2

 9
$PUCSORG
 10
0.00000000
 20
0.00000000
 30
0.00000000
 9
$PUCSXDIR
 10
1.00000000
 20
0.00000000
 30
0.00000000
 9
$PUCSYDIR
 10
0.00000000
 20
1.00000000
 30
0.00000000
 9
$USERI1
 70
     0
 9
$USERI2
 70
     0
 9
$USERI3
 70
     0
 9
$USERI4
 70
     0
 9
$USERI5
 70
     0
 9
$USERR1
 40
0.00000000
 9
$USERR2
 40
0.00000000
 9
$USERR3
 40
0.00000000
 9
$USERR4
 40
0.00000000
 9
$USERR5
 40
0.00000000
 9
$WORLDVIEW
 70
     1
 9
$SHADEDGE
 70
     3
 9
$SHADEDIF
 70
    70
 9
$TILEMODE
 70
     1
 9
$PINSBASE
 10
0.00000000
 20
0.00000000
 30
0.00000000
 9
$PLIMCHECK
 70
     0
 9
$PEXTMIN
 10
100000000000000000000.00000000
 20
100000000000000000000.00000000
 30
100000000000000000000.00000000
 9
$PEXTMAX
 10
-100000000000000000000.00000000
 20
-100000000000000000000.00000000
 30
-100000000000000000000.00000000
 9
$PLIMMIN
 10
0.00000000
 20
0.00000000
 9
$PLIMMAX
 10
420.00000000
 20
297.00000000
 9
$UNITMODE
 70
     0
 9
$VISRETAIN
 70
     0
 9
$PLINEGEN
 70
     0
 9
$PSLTSCALE
 70
     1
 9
$CMLSTYLE
 2
STANDARD
 9
$CMLJUST
 70
     0
 9
$CMLSCALE
 40
1.00000000
 9
$MEASUREMENT
 70
     1
 0
ENDSEC
 0
SECTION
 2
TABLES
 0
TABLE
 2
BLOCK_RECORD
 5
1
 100
AcDbSymbolTable
 70
     3
 0
BLOCK_RECORD
 5
1F
 100
AcDbSymbolTableRecord
 100
AcDbBlockTableRecord
 2
*MODEL_SPACE
 0
BLOCK_RECORD
 5
1B
 100
AcDbSymbolTableRecord
 100
AcDbBlockTableRecord
 2
*PAPER_SPACE
 0
BLOCK_RECORD
 5
23
 100
AcDbSymbolTableRecord
 100
AcDbBlockTableRecord
 2
*PAPER_SPACE0
 0
ENDTAB
 0
TABLE
 2
LTYPE
 5
5
 100
AcDbSymbolTable
 70
     3
 0
LTYPE
 5
14
 100
AcDbSymbolTableRecord
 100
AcDbLinetypeTableRecord
 2
BYBLOCK
 70
     0
 3

 72
    65
 73
     0
 40
0.00000000
 0
LTYPE
 5
15
 100
AcDbSymbolTableRecord
 100
AcDbLinetypeTableRecord
 2
BYLAYER
 70
     0
 3

 72
    65
 73
     0
 40
0.00000000
 0
LTYPE
 5
16
 100
AcDbSymbolTableRecord
 100
AcDbLinetypeTableRecord
 2
CONTINUOUS
 70
     0
 3
Solid line
 72
    65
 73
     0
 40
0.00000000
 0
ENDTAB
 0
TABLE
 2
LAYER
 5
2
 100
AcDbSymbolTable
 70
     1
 0
LAYER
 5
10
 100
AcDbSymbolTableRecord
 100
AcDbLayerTableRecord
 2
0
 70
     0
 62
     7
 6
CONTINUOUS
 0
ENDTAB
 0
TABLE
 2
STYLE
 5
3
 100
AcDbSymbolTable
 70
     1
 0
STYLE
 5
11
 100
AcDbSymbolTableRecord
 100
AcDbTextStyleTableRecord
 2
STANDARD
 70
     0
 40
0.00000000
 41
1.00000000
 50
0.00000000
 71
     0
 42
3.50000000
 3
txt
 4

 0
ENDTAB
 0
TABLE
 2
DIMSTYLE
 5
A
 100
AcDbSymbolTable
 70
     0
 0
ENDTAB
 0
TABLE
 2
VPORT
 5
8
 100
AcDbSymbolTable
 70
     0
 0
ENDTAB
 0
TABLE
 2
VIEW
 5
6
 100
AcDbSymbolTable
 70
     0
 0
ENDTAB
 0
TABLE
 2
UCS
 5
7
 100
AcDbSymbolTable
 70
     0
 0
ENDTAB
 0
TABLE
 2
APPID
 5
9
 100
AcDbSymbolTable
 70
     1
 0
APPID
 5
12
 100
AcDbSymbolTableRecord
 100
AcDbRegAppTableRecord
 2
ACAD
 70
     0
 0
ENDTAB
 0
ENDSEC
 0
SECTION
 2
BLOCKS
 0
BLOCK
 5
20
 100
AcDbEntity
 8
0
 100
AcDbBlockBegin
 2
*MODEL_SPACE
 70
     0
 10
0.00000000
 20
0.00000000
 30
0.00000000
 3
*MODEL_SPACE
 1

 0
ENDBLK
 5
21
 100
AcDbEntity
 8
0
 100
AcDbBlockEnd
 0
BLOCK
 5
1C
 100
AcDbEntity
 67
     1
 8
0
 100
AcDbBlockBegin
 2
*PAPER_SPACE
 70
     0
 10
0.00000000
 20
0.00000000
 30
0.00000000
 3
*PAPER_SPACE
 1

 0
ENDBLK
 5
1D
 100
AcDbEntity
 8
0
 100
AcDbBlockEnd
 0
BLOCK
 5
24
 100
AcDbEntity
 67
     1
 8
0
 100
AcDbBlockBegin
 2
*PAPER_SPACE0
 70
     0
 10
0.00000000
 20
0.00000000
 30
0.00000000
 3
*PAPER_SPACE0
 1

 0
ENDBLK
 5
25
 100
AcDbEntity
 8
0
 100
AcDbBlockEnd
 0
ENDSEC
 0
SECTION
 2
ENTITIES
 0
POINT
 5
200
 100
AcDbEntity
 8
0
 100
AcDbPoint
 62
   256
 10
311.05741020
 20
-823.96618016
 30
86.84120822
 0
POINT
 5
201
 100
AcDbEntity
 8
0
 100
AcDbPoint
 62
   256
 10
45.26339994
 20
-937.00192262
 30
75.67449738
 0
POINT
 5
202
 100
AcDbEntity
 8
0
 100
AcDbPoint
 62
   256
 10
-100.43368530
 20
-983.87795124
 30
70.19323070
 0
POINT
 5
203
 100
AcDbEntity
 8
0
 100
AcDbPoint
 62
   256
 10
91.06365568
 20
-836.51463376
 30
105.91521625
 0
POINT
 5
204
 100
AcDbEntity
 8
0
 100
AcDbPoint
 62
   256
 10
869.90390303
 20
-783.00652315
 30
87.15768748
 0
POINT
 5
205
 100
AcDbEntity
 8
0
 100
AcDbPoint
 62
   256
 10
1399.84365395
 20
-572.72968078
 30
28.26249676
 0
POINT
 5
206
 100
AcDbEntity
 8
0
 100
AcDbPoint
 62
   256
 10
1344.27799363
 20
-380.10572674
 30
14.64896038
 0
POINT
 5
207
 100
AcDbEntity
 8
0
 100
AcDbPoint
 62
   256
 10
1258.86431648
 20
-194.47834990
 30
4.81004207
 0
POINT
 5
208
 100
AcDbEntity
 8
0
 100
AcDbPoint
 62
   256
 10
1159.75770333
 20
-24.88696796
 30
-3.28665623
 0
POINT
 5
209
 100
AcDbEntity
 8
0
 100
AcDbPoint
 62
   256
 10
1056.32574404
 20
144.21953766
 30
-16.02325442
 0
POINT
 5
20A
 100
AcDbEntity
 8
0
 100
AcDbPoint
 62
   256
 10
942.06205767
 20
304.19695901
 30
-27.95755445
 0
POINT
 5
20B
 100
AcDbEntity
 8
0
 100
AcDbPoint
 62
   256
 10
810.47052440
 20
451.76093580
 30
-38.68033425
 0
POINT
 5
20C
 100
AcDbEntity
 8
0
 100
AcDbPoint
 62
   256
 10
719.57867522
 20
538.32287580
 30
-44.53297165
 0
POINT
 5
20D
 100
AcDbEntity
 8
0
 100
AcDbPoint
 62
   256
 10
607.87035025
 20
606.00549720
 30
-49.17906603
 0
POINT
 5
20E
 100
AcDbEntity
 8
0
 100
AcDbPoint
 62
   256
 10
485.81693244
 20
627.82838047
 30
-49.95754002
 0
POINT
 5
20F
 100
AcDbEntity
 8
0
 100
AcDbPoint
 62
   256
 10
368.84363984
 20
586.18116250
 30
-44.59111020
 0
POINT
 5
210
 100
AcDbEntity
 8
0
 100
AcDbPoint
 62
   256
 10
269.18004944
 20
505.95124384
 30
-37.55875764
 0
POINT
 5
211
 100
AcDbEntity
 8
0
 100
AcDbPoint
 62
   256
 10
188.79473969
 20
406.32168974
 30
-27.35820304
 0
POINT
 5
212
 100
AcDbEntity
 8
0
 100
AcDbPoint
 62
   256
 10
81.18288060
 20
239.52099523
 30
-14.31557500
 0
POINT
 5
213
 100
AcDbEntity
 8
0
 100
AcDbPoint
 62
   256
 10
-12.62289217
 20
59.14748791
 30
0.13639904
 0
POINT
 5
214
 100
AcDbEntity
 8
0
 100
AcDbPoint
 62
   256
 10
-90.79856618
 20
-123.23091566
 30
13.22210402
 0
POINT
 5
215
 100
AcDbEntity
 8
0
 100
AcDbPoint
 62
   256
 10
-155.69388994
 20
-308.67146372
 30
26.56538986
 0
POINT
 5
216
 100
AcDbEntity
 8
0
 100
AcDbPoint
 62
   256
 10
-211.37959947
 20
-502.18400306
 30
37.39262767
 0
POINT
 5
217
 100
AcDbEntity
 8
0
 100
AcDbPoint
 62
   256
 10
-244.56317955
 20
-695.27986879
 30
50.77365407
 0
POINT
 5
218
 100
AcDbEntity
 8
0
 100
AcDbPoint
 62
   256
 10
-213.36802653
 20
-781.13430899
 30
62.32285015
 0
POINT
 5
219
 100
AcDbEntity
 8
0
 100
AcDbPoint
 62
   256
 10
-139.05049133
 20
-831.79786412
 30
77.72720950
 0
POINT
 5
21A
 100
AcDbEntity
 8
0
 100
AcDbPoint
 62
   256
 10
680.48238326
 20
-810.33314779
 30
110.10084760
 0
POINT
 5
21B
 100
AcDbEntity
 8
0
 100
AcDbPoint
 62
   256
 10
496.74246654
 20
-825.76079582
 30
111.63893840
 0
POINT
 5
21C
 100
AcDbEntity
 8
0
 100
AcDbPoint
 62
   256
 10
902.87083796
 20
-1316.93174003
 30
440.02612522
 0
POINT
 5
21D
 100
AcDbEntity
 8
0
 100
AcDbPoint
 62
   256
 10
932.45196841
 20
-1321.75453565
 30
439.06387141
 0
POINT
 5
21E
 100
AcDbEntity
 8
0
 100
AcDbPoint
 62
   256
 10
1110.79388477
 20
-1353.68144891
 30
422.47371784
 0
POINT
 5
21F
 100
AcDbEntity
 8
0
 100
AcDbPoint
 62
   256
 10
1291.78324258
 20
-1377.01566376
 30
404.58473442
 0
POINT
 5
220
 100
AcDbEntity
 8
0
 100
AcDbPoint
 62
   256
 10
1482.41835149
 20
-1396.69166684
 30
379.24239162
 0
POINT
 5
221
 100
AcDbEntity
 8
0
 100
AcDbPoint
 62
   256
 10
1521.89335941
 20
-1393.67988735
 30
368.94013881
 0
POINT
 5
222
 100
AcDbEntity
 8
0
 100
AcDbPoint
 62
   256
 10
812.20965456
 20
-1307.92335510
 30
445.07843544
 0
POINT
 5
223
 100
AcDbEntity
 8
0
 100
AcDbPoint
 62
   256
 10
642.97135629
 20
-1314.77101523
 30
446.92259229
 0
POINT
 5
224
 100
AcDbEntity
 8
0
 100
AcDbPoint
 62
   256
 10
464.40394676
 20
-1334.58131787
 30
448.16012310
 0
POINT
 5
225
 100
AcDbEntity
 8
0
 100
AcDbPoint
 62
   256
 10
-245.93503367
 20
-1525.17273602
 30
406.42674349
 0
POINT
 5
226
 100
AcDbEntity
 8
0
 100
AcDbPoint
 62
   256
 10
-206.39032133
 20
-1517.91123125
 30
410.40410006
 0
POINT
 5
227
 100
AcDbEntity
 8
0
 100
AcDbPoint
 62
   256
 10
-28.36932904
 20
-1470.84325973
 30
426.19724966
 0
POINT
 5
228
 100
AcDbEntity
 8
0
 100
AcDbPoint
 62
   256
 10
144.97043155
 20
-1421.35408740
 30
438.65651130
 0
POINT
 5
229
 100
AcDbEntity
 8
0
 100
AcDbPoint
 62
   256
 10
319.32423685
 20
-1367.16984634
 30
449.66365794
 0
POINT
 5
22A
 100
AcDbEntity
 8
0
 100
AcDbPoint
 62
   256
 10
-334.16348679
 20
-1381.00830765
 30
57.14605767
 0
POINT
 5
22B
 100
AcDbEntity
 8
0
 100
AcDbPoint
 62
   256
 10
-328.76604932
 20
-1606.41025868
 30
63.10987235
 0
POINT
 5
22C
 100
AcDbEntity
 8
0
 100
AcDbPoint
 62
   256
 10
-327.03127498
 20
-1653.05185368
 30
65.71717189
 0
POINT
 5
22D
 100
AcDbEntity
 8
0
 100
AcDbPoint
 62
   256
 10
-317.86390294
 20
-1921.99682785
 30
71.14477044
 0
POINT
 5
22E
 100
AcDbEntity
 8
0
 100
AcDbPoint
 62
   256
 10
-301.26118846
 20
-2189.00435050
 30
83.18069100
 0
POINT
 5
22F
 100
AcDbEntity
 8
0
 100
AcDbPoint
 62
   256
 10
-287.24120786
 20
-2443.34074314
 30
84.52351704
 0
POINT
 5
230
 100
AcDbEntity
 8
0
 100
AcDbPoint
 62
   256
 10
-284.07937824
 20
-2488.59613000
 30
83.73659896
 0
POINT
 5
231
 100
AcDbEntity
 8
0
 100
AcDbPoint
 62
   256
 10
-262.46162269
 20
-2717.28345990
 30
72.77768115
 0
POINT
 5
232
 100
AcDbEntity
 8
0
 100
AcDbPoint
 62
   256
 10
-238.13353943
 20
-2938.73237372
 30
55.43095858
 0
POINT
 5
233
 100
AcDbEntity
 8
0
 100
AcDbPoint
 62
   256
 10
-240.68681777
 20
-3109.70468552
 30
20.80702004
 0
POINT
 5
234
 100
AcDbEntity
 8
0
 100
AcDbPoint
 62
   256
 10
-235.13411618
 20
-3157.27086424
 30
21.21040557
 0
POINT
 5
235
 100
AcDbEntity
 8
0
 100
AcDbPoint
 62
   256
 10
-205.68023997
 20
-3440.97849468
 30
13.05942209
 0
POINT
 5
236
 100
AcDbEntity
 8
0
 100
AcDbPoint
 62
   256
 10
-168.11190954
 20
-3711.18269022
 30
-1.55336261
 0
POINT
 5
237
 100
AcDbEntity
 8
0
 100
AcDbPoint
 62
   256
 10
-119.62922865
 20
-3942.56612490
 30
-22.50075989
 0
POINT
 5
238
 100
AcDbEntity
 8
0
 100
AcDbPoint
 62
   256
 10
1678.56955124
 20
-3871.16742922
 30
-28.58287835
 0
POINT
 5
239
 100
AcDbEntity
 8
0
 100
AcDbPoint
 62
   256
 10
1551.88501668
 20
-3913.10728047
 30
-29.68359187
 0
POINT
 5
23A
 100
AcDbEntity
 8
0
 100
AcDbPoint
 62
   256
 10
1234.67635942
 20
-3969.88292048
 30
-32.42864288
 0
POINT
 5
23B
 100
AcDbEntity
 8
0
 100
AcDbPoint
 62
   256
 10
992.20014619
 20
-3994.86118009
 30
-31.43834762
 0
POINT
 5
23C
 100
AcDbEntity
 8
0
 100
AcDbPoint
 62
   256
 10
598.25937996
 20
-4023.37723267
 30
-29.64160624
 0
POINT
 5
23D
 100
AcDbEntity
 8
0
 100
AcDbPoint
 62
   256
 10
413.83341058
 20
-4029.32602427
 30
-28.93367402
 0
POINT
 5
23E
 100
AcDbEntity
 8
0
 100
AcDbPoint
 62
   256
 10
195.87718767
 20
-4029.37752850
 30
-27.44168878
 0
POINT
 5
23F
 100
AcDbEntity
 8
0
 100
AcDbPoint
 62
   256
 10
51.92270892
 20
-4019.18982621
 30
-25.07817176
 0
POINT
 5
240
 100
AcDbEntity
 8
0
 100
AcDbPoint
 62
   256
 10
-77.37046220
 20
-3998.13178269
 30
-24.38358638
 0
POINT
 5
241
 100
AcDbEntity
 8
0
 100
AcDbPoint
 62
   256
 10
-126.74167501
 20
-3942.96751177
 30
-18.92155497
 0
POINT
 5
242
 100
AcDbEntity
 8
0
 100
AcDbPoint
 62
   256
 10
1286.42083875
 20
-721.39368864
 30
99.92050491
 0
POINT
 5
243
 100
AcDbEntity
 8
0
 100
AcDbPoint
 62
   256
 10
1357.89778464
 20
-670.67632645
 30
77.31254481
 0
POINT
 5
244
 100
AcDbEntity
 8
0
 100
AcDbPoint
 62
   256
 10
1382.89715699
 20
-579.87288588
 30
61.66761034
 0
POINT
 5
245
 100
AcDbEntity
 8
0
 100
AcDbPoint
 62
   256
 10
1329.43191148
 20
-386.79698989
 30
46.76002749
 0
POINT
 5
246
 100
AcDbEntity
 8
0
 100
AcDbPoint
 62
   256
 10
1245.10569862
 20
-202.23820191
 30
35.84760229
 0
POINT
 5
247
 100
AcDbEntity
 8
0
 100
AcDbPoint
 62
   256
 10
1145.57669795
 20
-29.90425794
 30
24.53415649
 0
POINT
 5
248
 100
AcDbEntity
 8
0
 100
AcDbPoint
 62
   256
 10
1043.72280633
 20
138.26503211
 30
12.37074413
 0
POINT
 5
249
 100
AcDbEntity
 8
0
 100
AcDbPoint
 62
   256
 10
928.97620610
 20
298.69246356
 30
0.60192051
 0
POINT
 5
24A
 100
AcDbEntity
 8
0
 100
AcDbPoint
 62
   256
 10
798.87903413
 20
446.41036370
 30
-10.96531877
 0
POINT
 5
24B
 100
AcDbEntity
 8
0
 100
AcDbPoint
 62
   256
 10
707.78021538
 20
534.90202782
 30
-19.59103359
 0
POINT
 5
24C
 100
AcDbEntity
 8
0
 100
AcDbPoint
 62
   256
 10
596.60818066
 20
600.81905415
 30
-22.18587111
 0
POINT
 5
24D
 100
AcDbEntity
 8
0
 100
AcDbPoint
 62
   256
 10
475.53800779
 20
624.30863381
 30
-24.14490637
 0
LINE
 5
24E
 100
AcDbEntity
 8
0
 100
AcDbLine
 62
   256
 10
0.00000000
 20
0.00000000
 30
0.00000000
 11
1019.21252706
 21
146.76535012
 31
-25.25516427
 0
LINE
 5
24F
 100
AcDbEntity
 8
0
 100
AcDbLine
 62
   256
 10
1019.21252706
 20
146.76535012
 30
-25.25516427
 11
477.31473908
 21
539.53794830
 31
-51.56682961
 0
LINE
 5
250
 100
AcDbEntity
 8
0
 100
AcDbLine
 62
   256
 10
868.60924895
 20
-1308.46379336
 30
441.75845675
 11
822.59394526
 21
-1308.45565650
 31
443.44088051
 0
LINE
 5
251
 100
AcDbEntity
 8
0
 100
AcDbLine
 62
   256
 10
822.59394526
 20
-1308.45565650
 30
443.44088051
 11
767.84649840
 21
-1309.17667544
 31
445.72993173
 0
LINE
 5
252
 100
AcDbEntity
 8
0
 100
AcDbLine
 62
   256
 10
767.84649840
 20
-1309.17667544
 30
445.72993173
 11
708.05508217
 21
-1311.91433833
 31
447.37399599
 0
LINE
 5
253
 100
AcDbEntity
 8
0
 100
AcDbLine
 62
   256
 10
708.05508217
 20
-1311.91433833
 30
447.37399599
 11
641.39422427
 21
-1316.12144379
 31
447.53425484
 0
LINE
 5
254
 100
AcDbEntity
 8
0
 100
AcDbLine
 62
   256
 10
641.39422427
 20
-1316.12144379
 30
447.53425484
 11
549.72481985
 21
-1325.00907793
 31
447.86581060
 0
LINE
 5
255
 100
AcDbEntity
 8
0
 100
AcDbLine
 62
   256
 10
549.72481985
 20
-1325.00907793
 30
447.86581060
 11
480.75587586
 21
-1334.05101705
 31
448.15222460
 0
LINE
 5
256
 100
AcDbEntity
 8
0
 100
AcDbLine
 62
   256
 10
480.75587586
 20
-1334.05101705
 30
448.15222460
 11
427.41983231
 21
-1341.39003195
 31
453.10840314
 0
LINE
 5
257
 100
AcDbEntity
 8
0
 100
AcDbLine
 62
   256
 10
427.41983231
 20
-1341.39003195
 30
453.10840314
 11
403.16895373
 21
-1347.83346648
 31
448.95246984
 0
LINE
 5
258
 100
AcDbEntity
 8
0
 100
AcDbLine
 62
   256
 10
403.16895373
 20
-1347.83346648
 30
448.95246984
 11
356.35247311
 21
-1362.61372257
 31
446.70490370
 0
LINE
 5
259
 100
AcDbEntity
 8
0
 100
AcDbLine
 62
   256
 10
356.35247311
 20
-1362.61372257
 30
446.70490370
 11
-211.59019827
 21
-1527.16484442
 31
407.18985447
 0
LINE
 5
25A
 100
AcDbEntity
 8
0
 100
AcDbLine
 62
   256
 10
-211.59019827
 20
-1527.16484442
 30
407.18985447
 11
-227.39410216
 21
-1531.33669493
 31
405.37347724
 0
LINE
 5
25B
 100
AcDbEntity
 8
0
 100
AcDbLine
 62
   256
 10
-227.39410216
 20
-1531.33669493
 30
405.37347724
 11
-237.84610074
 21
-1533.42675969
 31
404.03663431
 0
LINE
 5
25C
 100
AcDbEntity
 8
0
 100
AcDbLine
 62
   256
 10
851.48882360
 20
-786.29581530
 30
88.41426413
 11
829.59067463
 21
-784.42515883
 31
88.72154287
 0
LINE
 5
25D
 100
AcDbEntity
 8
0
 100
AcDbLine
 62
   256
 10
829.59067463
 20
-784.42515883
 30
88.72154287
 11
810.68577813
 21
-785.96321906
 31
88.43538921
 0
LINE
 5
25E
 100
AcDbEntity
 8
0
 100
AcDbLine
 62
   256
 10
810.68577813
 20
-785.96321906
 30
88.43538921
 11
801.15921180
 21
-787.42463550
 31
88.57631157
 0
LINE
 5
25F
 100
AcDbEntity
 8
0
 100
AcDbLine
 62
   256
 10
801.15921180
 20
-787.42463550
 30
88.57631157
 11
800.51651367
 21
-790.43033482
 31
90.46154339
 0
LINE
 5
260
 100
AcDbEntity
 8
0
 100
AcDbLine
 62
   256
 10
800.51651367
 20
-790.43033482
 30
90.46154339
 11
801.16724688
 21
-796.88279565
 31
95.10600733
 0
LINE
 5
261
 100
AcDbEntity
 8
0
 100
AcDbLine
 62
   256
 10
801.16724688
 20
-796.88279565
 30
95.10600733
 11
790.63128017
 21
-795.85925797
 31
93.94599178
 0
LINE
 5
262
 100
AcDbEntity
 8
0
 100
AcDbLine
 62
   256
 10
790.63128017
 20
-795.85925797
 30
93.94599178
 11
746.03912958
 21
-796.85838799
 31
94.23030679
 0
LINE
 5
263
 100
AcDbEntity
 8
0
 100
AcDbLine
 62
   256
 10
746.03912958
 20
-796.85838799
 30
94.23030679
 11
703.75110794
 21
-798.86846415
 31
95.25472315
 0
LINE
 5
264
 100
AcDbEntity
 8
0
 100
AcDbLine
 62
   256
 10
703.75110794
 20
-798.86846415
 30
95.25472315
 11
666.65635547
 21
-801.05405561
 31
96.74408041
 0
LINE
 5
265
 100
AcDbEntity
 8
0
 100
AcDbLine
 62
   256
 10
666.65635547
 20
-801.05405561
 30
96.74408041
 11
597.90470263
 21
-805.50874552
 31
97.63595217
 0
LINE
 5
266
 100
AcDbEntity
 8
0
 100
AcDbLine
 62
   256
 10
597.90470263
 20
-805.50874552
 30
97.63595217
 11
540.82456838
 21
-810.29037750
 31
96.94700023
 0
LINE
 5
267
 100
AcDbEntity
 8
0
 100
AcDbLine
 62
   256
 10
540.82456838
 20
-810.29037750
 30
96.94700023
 11
515.01123464
 21
-812.97473411
 31
95.82848523
 0
LINE
 5
268
 100
AcDbEntity
 8
0
 100
AcDbLine
 62
   256
 10
515.01123464
 20
-812.97473411
 30
95.82848523
 11
486.00996950
 21
-815.73545666
 31
100.73220740
 0
LINE
 5
269
 100
AcDbEntity
 8
0
 100
AcDbLine
 62
   256
 10
486.00996950
 20
-815.73545666
 30
100.73220740
 11
444.28125874
 21
-814.83631589
 31
106.05857374
 0
LINE
 5
26A
 100
AcDbEntity
 8
0
 100
AcDbLine
 62
   256
 10
444.28125874
 20
-814.83631589
 30
106.05857374
 11
407.88190450
 21
-819.66517067
 31
111.85741937
 0
LINE
 5
26B
 100
AcDbEntity
 8
0
 100
AcDbLine
 62
   256
 10
407.88190450
 20
-819.66517067
 30
111.85741937
 11
390.36935574
 21
-817.61116025
 31
113.16740783
 0
LINE
 5
26C
 100
AcDbEntity
 8
0
 100
AcDbLine
 62
   256
 10
343.98313914
 20
-834.05249482
 30
88.59568760
 11
263.50415879
 21
-867.38375314
 31
84.98915655
 0
LINE
 5
26D
 100
AcDbEntity
 8
0
 100
AcDbLine
 62
   256
 10
263.50415879
 20
-867.38375314
 30
84.98915655
 11
200.21033400
 21
-891.25810978
 31
82.39337651
 0
LINE
 5
26E
 100
AcDbEntity
 8
0
 100
AcDbLine
 62
   256
 10
200.21033400
 20
-891.25810978
 30
82.39337651
 11
105.97270915
 21
-927.93158383
 31
78.39172134
 0
LINE
 5
26F
 100
AcDbEntity
 8
0
 100
AcDbLine
 62
   256
 10
105.97270915
 20
-927.93158383
 30
78.39172134
 11
26.46866473
 21
-959.40487502
 31
75.20139738
 0
LINE
 5
270
 100
AcDbEntity
 8
0
 100
AcDbLine
 62
   256
 10
26.46866473
 20
-959.40487502
 30
75.20139738
 11
-77.87181005
 21
-996.24224279
 31
71.81998475
 0
LINE
 5
271
 100
AcDbEntity
 8
0
 100
AcDbLine
 62
   256
 10
-77.87181005
 20
-996.24224279
 30
71.81998475
 11
-172.06743216
 21
-1032.78423709
 31
68.63593835
 0
LINE
 5
272
 100
AcDbEntity
 8
0
 100
AcDbLine
 62
   256
 10
-172.06743216
 20
-1032.78423709
 30
68.63593835
 11
-241.70473488
 21
-1054.95191777
 31
66.13987690
 0
LINE
 5
273
 100
AcDbEntity
 8
0
 100
AcDbLine
 62
   256
 10
-241.70473488
 20
-1054.95191777
 30
66.13987690
 11
-267.82957673
 21
-1062.86242221
 31
65.16054990
 0
LINE
 5
274
 100
AcDbEntity
 8
0
 100
AcDbLine
 62
   256
 10
-267.82957673
 20
-1062.86242221
 30
65.16054990
 11
-292.26089016
 21
-1075.26393974
 31
63.97805007
 0
LINE
 5
275
 100
AcDbEntity
 8
0
 100
AcDbLine
 62
   256
 10
-292.26089016
 20
-1075.26393974
 30
63.97805007
 11
-296.62038340
 21
-1083.48744985
 31
63.72470496
 0
LINE
 5
276
 100
AcDbEntity
 8
0
 100
AcDbLine
 62
   256
 10
-296.62038340
 20
-1083.48744985
 30
63.72470496
 11
-297.18602247
 21
-1097.81254257
 31
63.32465951
 0
LINE
 5
277
 100
AcDbEntity
 8
0
 100
AcDbLine
 62
   256
 10
-297.18602247
 20
-1097.81254257
 30
63.32465951
 11
-297.77454181
 21
-1134.84510943
 31
61.90359361
 0
POINT
 5
278
 100
AcDbEntity
 8
0
 100
AcDbPoint
 62
   256
 10
311.05741020
 20
-823.96618016
 30
86.84120822
 0
LINE
 5
279
 100
AcDbEntity
 8
0
 100
AcDbLine
 62
   256
 10
205.03559438
 20
-873.07814610
 30
84.63599133
 11
185.20899288
 21
-883.05329755
 31
84.37278638
 0
POINT
 5
27A
 100
AcDbEntity
 8
0
 100
AcDbPoint
 62
   256
 10
45.26339994
 20
-937.00192262
 30
75.67449738
 0
POINT
 5
27B
 100
AcDbEntity
 8
0
 100
AcDbPoint
 62
   256
 10
-100.43368530
 20
-983.87795124
 30
70.19323070
 0
LINE
 5
27C
 100
AcDbEntity
 8
0
 100
AcDbLine
 62
   256
 10
-245.63339740
 20
-1028.31284861
 30
64.07337361
 11
-265.81463376
 21
-1037.07507485
 31
63.56197830
 0
POINT
 5
27D
 100
AcDbEntity
 8
0
 100
AcDbPoint
 62
   256
 10
91.06365568
 20
-836.51463376
 30
105.91521625
 0
LINE
 5
27E
 100
AcDbEntity
 8
0
 100
AcDbLine
 62
   256
 10
27.25379368
 20
-820.98913468
 30
112.57185783
 11
2.84954319
 21
-819.78885429
 31
110.80321524
 0
LINE
 5
27F
 100
AcDbEntity
 8
0
 100
AcDbLine
 62
   256
 10
2.84954319
 20
-819.78885429
 30
110.80321524
 11
-40.44825600
 21
-815.52314925
 31
105.15598329
 0
LINE
 5
280
 100
AcDbEntity
 8
0
 100
AcDbLine
 62
   256
 10
-40.44825600
 20
-815.52314925
 30
105.15598329
 11
-78.94514419
 21
-811.73169967
 31
97.96639076
 0
LINE
 5
281
 100
AcDbEntity
 8
0
 100
AcDbLine
 62
   256
 10
-78.94514419
 20
-811.73169967
 30
97.96639076
 11
-116.66600339
 21
-806.58594574
 31
88.86978420
 0
LINE
 5
282
 100
AcDbEntity
 8
0
 100
AcDbLine
 62
   256
 10
-116.66600339
 20
-806.58594574
 30
88.86978420
 11
-154.09979699
 21
-798.89507839
 31
77.49202175
 0
LINE
 5
283
 100
AcDbEntity
 8
0
 100
AcDbLine
 62
   256
 10
-154.09979699
 20
-798.89507839
 30
77.49202175
 11
-184.68699211
 21
-784.82583013
 31
69.15443873
 0
LINE
 5
284
 100
AcDbEntity
 8
0
 100
AcDbLine
 62
   256
 10
-184.68699211
 20
-784.82583013
 30
69.15443873
 11
-203.95430525
 21
-761.03401144
 31
63.00361029
 0
LINE
 5
285
 100
AcDbEntity
 8
0
 100
AcDbLine
 62
   256
 10
-203.95430525
 20
-761.03401144
 30
63.00361029
 11
-225.18906848
 21
-709.41929541
 31
51.99757684
 0
LINE
 5
286
 100
AcDbEntity
 8
0
 100
AcDbLine
 62
   256
 10
-225.18906848
 20
-709.41929541
 30
51.99757684
 11
-225.26926608
 21
-697.11824694
 31
50.77687513
 0
LINE
 5
287
 100
AcDbEntity
 8
0
 100
AcDbLine
 62
   256
 10
-225.26926608
 20
-697.11824694
 30
50.77687513
 11
-221.78624524
 21
-656.59799188
 31
47.69181728
 0
LINE
 5
288
 100
AcDbEntity
 8
0
 100
AcDbLine
 62
   256
 10
-221.78624524
 20
-656.59799188
 30
47.69181728
 11
-211.38537758
 21
-606.43710133
 31
44.32992037
 0
LINE
 5
289
 100
AcDbEntity
 8
0
 100
AcDbLine
 62
   256
 10
-211.38537758
 20
-606.43710133
 30
44.32992037
 11
-177.23793029
 21
-470.16609793
 31
36.55266038
 0
LINE
 5
28A
 100
AcDbEntity
 8
0
 100
AcDbLine
 62
   256
 10
-177.23793029
 20
-470.16609793
 30
36.55266038
 11
-150.92498982
 21
-380.26088289
 31
31.14126351
 0
LINE
 5
28B
 100
AcDbEntity
 8
0
 100
AcDbLine
 62
   256
 10
-150.92498982
 20
-380.26088289
 30
31.14126351
 11
-134.03639404
 21
-323.43555492
 31
28.87970071
 0
LINE
 5
28C
 100
AcDbEntity
 8
0
 100
AcDbLine
 62
   256
 10
-134.03639404
 20
-323.43555492
 30
28.87970071
 11
-106.90088567
 21
-248.06753690
 31
22.98804997
 0
LINE
 5
28D
 100
AcDbEntity
 8
0
 100
AcDbLine
 62
   256
 10
-106.90088567
 20
-248.06753690
 30
22.98804997
 11
-71.23173660
 21
-152.34327565
 31
17.49319930
 0
LINE
 5
28E
 100
AcDbEntity
 8
0
 100
AcDbLine
 62
   256
 10
-71.23173660
 20
-152.34327565
 30
17.49319930
 11
-36.61974850
 21
-71.66639048
 31
12.49798942
 0
LINE
 5
28F
 100
AcDbEntity
 8
0
 100
AcDbLine
 62
   256
 10
-36.61974850
 20
-71.66639048
 30
12.49798942
 11
7.67583947
 21
19.25172337
 31
7.20571150
 0
LINE
 5
290
 100
AcDbEntity
 8
0
 100
AcDbLine
 62
   256
 10
7.67583947
 20
19.25172337
 30
7.20571150
 11
50.38785954
 21
98.67201551
 31
1.82949356
 0
LINE
 5
291
 100
AcDbEntity
 8
0
 100
AcDbLine
 62
   256
 10
50.38785954
 20
98.67201551
 30
1.82949356
 11
110.00243972
 21
204.29287184
 31
-8.04118531
 0
LINE
 5
292
 100
AcDbEntity
 8
0
 100
AcDbLine
 62
   256
 10
110.00243972
 20
204.29287184
 30
-8.04118531
 11
172.28145046
 21
293.26695749
 31
-15.00602637
 0
LINE
 5
293
 100
AcDbEntity
 8
0
 100
AcDbLine
 62
   256
 10
172.28145046
 20
293.26695749
 30
-15.00602637
 11
233.34380277
 21
375.59906716
 31
-22.22737747
 0
LINE
 5
294
 100
AcDbEntity
 8
0
 100
AcDbLine
 62
   256
 10
233.34380277
 20
375.59906716
 30
-22.22737747
 11
285.18936447
 21
431.67203791
 31
-28.45781305
 0
LINE
 5
295
 100
AcDbEntity
 8
0
 100
AcDbLine
 62
   256
 10
285.18936447
 20
431.67203791
 30
-28.45781305
 11
348.39411173
 21
488.98553172
 31
-36.58572810
 0
LINE
 5
296
 100
AcDbEntity
 8
0
 100
AcDbLine
 62
   256
 10
348.39411173
 20
488.98553172
 30
-36.58572810
 11
408.35781603
 21
523.13266689
 31
-40.04983105
 0
LINE
 5
297
 100
AcDbEntity
 8
0
 100
AcDbLine
 62
   256
 10
408.35781603
 20
523.13266689
 30
-40.04983105
 11
468.42072187
 21
537.97770908
 31
-42.80472093
 0
LINE
 5
298
 100
AcDbEntity
 8
0
 100
AcDbLine
 62
   256
 10
468.42072187
 20
537.97770908
 30
-42.80472093
 11
483.89730243
 21
540.53547403
 31
-42.38009135
 0
LINE
 5
299
 100
AcDbEntity
 8
0
 100
AcDbLine
 62
   256
 10
483.89730243
 20
540.53547403
 30
-42.38009135
 11
516.93698680
 21
539.07709916
 31
-43.25468341
 0
LINE
 5
29A
 100
AcDbEntity
 8
0
 100
AcDbLine
 62
   256
 10
516.93698680
 20
539.07709916
 30
-43.25468341
 11
566.29134322
 21
535.87429182
 31
-42.93137545
 0
LINE
 5
29B
 100
AcDbEntity
 8
0
 100
AcDbLine
 62
   256
 10
566.29134322
 20
535.87429182
 30
-42.93137545
 11
627.60993504
 21
517.43234566
 31
-42.80152769
 0
LINE
 5
29C
 100
AcDbEntity
 8
0
 100
AcDbLine
 62
   256
 10
627.60993504
 20
517.43234566
 30
-42.80152769
 11
690.61141365
 21
477.89941738
 31
-40.23998698
 0
LINE
 5
29D
 100
AcDbEntity
 8
0
 100
AcDbLine
 62
   256
 10
690.61141365
 20
477.89941738
 30
-40.23998698
 11
768.78838769
 21
415.93632053
 31
-35.26591688
 0
LINE
 5
29E
 100
AcDbEntity
 8
0
 100
AcDbLine
 62
   256
 10
768.78838769
 20
415.93632053
 30
-35.26591688
 11
830.75391674
 21
357.32797108
 31
-31.07403736
 0
LINE
 5
29F
 100
AcDbEntity
 8
0
 100
AcDbLine
 62
   256
 10
830.75391674
 20
357.32797108
 30
-31.07403736
 11
916.36704362
 21
266.64909381
 31
-23.64496837
 0
LINE
 5
2A0
 100
AcDbEntity
 8
0
 100
AcDbLine
 62
   256
 10
916.36704362
 20
266.64909381
 30
-23.64496837
 11
966.64377389
 21
204.03784755
 31
-19.22369543
 0
LINE
 5
2A1
 100
AcDbEntity
 8
0
 100
AcDbLine
 62
   256
 10
966.64377389
 20
204.03784755
 30
-19.22369543
 11
1037.22798865
 21
110.61884729
 31
-13.17727605
 0
LINE
 5
2A2
 100
AcDbEntity
 8
0
 100
AcDbLine
 62
   256
 10
1037.22798865
 20
110.61884729
 30
-13.17727605
 11
1094.20212728
 21
27.25789952
 31
-8.84021399
 0
LINE
 5
2A3
 100
AcDbEntity
 8
0
 100
AcDbLine
 62
   256
 10
1094.20212728
 20
27.25789952
 30
-8.84021399
 11
1169.78134950
 21
-89.04471651
 31
-1.75193382
 0
LINE
 5
2A4
 100
AcDbEntity
 8
0
 100
AcDbLine
 62
   256
 10
1169.78134950
 20
-89.04471651
 30
-1.75193382
 11
1213.36450046
 21
-168.87388533
 31
3.02436435
 0
LINE
 5
2A5
 100
AcDbEntity
 8
0
 100
AcDbLine
 62
   256
 10
1213.36450046
 20
-168.87388533
 30
3.02436435
 11
1268.61939262
 21
-274.49729345
 31
9.53061661
 0
LINE
 5
2A6
 100
AcDbEntity
 8
0
 100
AcDbLine
 62
   256
 10
1268.61939262
 20
-274.49729345
 30
9.53061661
 11
1302.20619233
 21
-348.34263826
 31
12.43262216
 0
LINE
 5
2A7
 100
AcDbEntity
 8
0
 100
AcDbLine
 62
   256
 10
1302.20619233
 20
-348.34263826
 30
12.43262216
 11
1336.99038598
 21
-426.56765486
 31
16.34533340
 0
LINE
 5
2A8
 100
AcDbEntity
 8
0
 100
AcDbLine
 62
   256
 10
1336.99038598
 20
-426.56765486
 30
16.34533340
 11
1363.18813320
 21
-497.19002741
 31
20.61562753
 0
LINE
 5
2A9
 100
AcDbEntity
 8
0
 100
AcDbLine
 62
   256
 10
1363.18813320
 20
-497.19002741
 30
20.61562753
 11
1388.26317342
 21
-567.15054437
 31
24.36804116
 0
LINE
 5
2AA
 100
AcDbEntity
 8
0
 100
AcDbLine
 62
   256
 10
1388.26317342
 20
-567.15054437
 30
24.36804116
 11
1391.08310240
 21
-607.70905381
 31
29.54252782
 0
LINE
 5
2AB
 100
AcDbEntity
 8
0
 100
AcDbLine
 62
   256
 10
1391.08310240
 20
-607.70905381
 30
29.54252782
 11
1387.02148712
 21
-623.77309950
 31
32.52745749
 0
LINE
 5
2AC
 100
AcDbEntity
 8
0
 100
AcDbLine
 62
   256
 10
1387.02148712
 20
-623.77309950
 30
32.52745749
 11
1378.95693000
 21
-629.28901213
 31
32.47015113
 0
LINE
 5
2AD
 100
AcDbEntity
 8
0
 100
AcDbLine
 62
   256
 10
818.66222121
 20
-810.84592477
 30
82.45071004
 11
819.59227284
 21
-794.96648998
 31
84.20348151
 0
LINE
 5
2AE
 100
AcDbEntity
 8
0
 100
AcDbLine
 62
   256
 10
819.59227284
 20
-794.96648998
 30
84.20348151
 11
819.31141471
 21
-784.25753254
 31
82.32541731
 0
LINE
 5
2AF
 100
AcDbEntity
 8
0
 100
AcDbLine
 62
   256
 10
819.31141471
 20
-784.25753254
 30
82.32541731
 11
824.54940090
 21
-781.95169135
 31
82.43249741
 0
LINE
 5
2B0
 100
AcDbEntity
 8
0
 100
AcDbLine
 62
   256
 10
824.54940090
 20
-781.95169135
 30
82.43249741
 11
830.98654298
 21
-780.26168638
 31
82.27206898
 0
LINE
 5
2B1
 100
AcDbEntity
 8
0
 100
AcDbLine
 62
   256
 10
830.98654298
 20
-780.26168638
 30
82.27206898
 11
891.22815793
 21
-772.35684625
 31
80.99052562
 0
LINE
 5
2B2
 100
AcDbEntity
 8
0
 100
AcDbLine
 62
   256
 10
891.22815793
 20
-772.35684625
 30
80.99052562
 11
929.48737698
 21
-769.63052157
 31
86.13605575
 0
LINE
 5
2B3
 100
AcDbEntity
 8
0
 100
AcDbLine
 62
   256
 10
929.48737698
 20
-769.63052157
 30
86.13605575
 11
964.04805256
 21
-765.85795821
 31
90.99987084
 0
LINE
 5
2B4
 100
AcDbEntity
 8
0
 100
AcDbLine
 62
   256
 10
964.04805256
 20
-765.85795821
 30
90.99987084
 11
983.01088748
 21
-763.79624241
 31
93.33943173
 0
POINT
 5
2B5
 100
AcDbEntity
 8
0
 100
AcDbPoint
 62
   256
 10
869.90390303
 20
-783.00652315
 30
87.15768748
 0
POINT
 5
2B6
 100
AcDbEntity
 8
0
 100
AcDbPoint
 62
   256
 10
1399.84365395
 20
-572.72968078
 30
28.26249676
 0
POINT
 5
2B7
 100
AcDbEntity
 8
0
 100
AcDbPoint
 62
   256
 10
1344.27799363
 20
-380.10572674
 30
14.64896038
 0
POINT
 5
2B8
 100
AcDbEntity
 8
0
 100
AcDbPoint
 62
   256
 10
1258.86431648
 20
-194.47834990
 30
4.81004207
 0
POINT
 5
2B9
 100
AcDbEntity
 8
0
 100
AcDbPoint
 62
   256
 10
1159.75770333
 20
-24.88696796
 30
-3.28665623
 0
POINT
 5
2BA
 100
AcDbEntity
 8
0
 100
AcDbPoint
 62
   256
 10
1056.32574404
 20
144.21953766
 30
-16.02325442
 0
POINT
 5
2BB
 100
AcDbEntity
 8
0
 100
AcDbPoint
 62
   256
 10
942.06205767
 20
304.19695901
 30
-27.95755445
 0
POINT
 5
2BC
 100
AcDbEntity
 8
0
 100
AcDbPoint
 62
   256
 10
810.47052440
 20
451.76093580
 30
-38.68033425
 0
POINT
 5
2BD
 100
AcDbEntity
 8
0
 100
AcDbPoint
 62
   256
 10
719.57867522
 20
538.32287580
 30
-44.53297165
 0
POINT
 5
2BE
 100
AcDbEntity
 8
0
 100
AcDbPoint
 62
   256
 10
607.87035025
 20
606.00549720
 30
-49.17906603
 0
POINT
 5
2BF
 100
AcDbEntity
 8
0
 100
AcDbPoint
 62
   256
 10
485.81693244
 20
627.82838047
 30
-49.95754002
 0
POINT
 5
2C0
 100
AcDbEntity
 8
0
 100
AcDbPoint
 62
   256
 10
368.84363984
 20
586.18116250
 30
-44.59111020
 0
POINT
 5
2C1
 100
AcDbEntity
 8
0
 100
AcDbPoint
 62
   256
 10
269.18004944
 20
505.95124384
 30
-37.55875764
 0
POINT
 5
2C2
 100
AcDbEntity
 8
0
 100
AcDbPoint
 62
   256
 10
188.79473969
 20
406.32168974
 30
-27.35820304
 0
POINT
 5
2C3
 100
AcDbEntity
 8
0
 100
AcDbPoint
 62
   256
 10
81.18288060
 20
239.52099523
 30
-14.31557500
 0
POINT
 5
2C4
 100
AcDbEntity
 8
0
 100
AcDbPoint
 62
   256
 10
-12.62289217
 20
59.14748791
 30
0.13639904
 0
POINT
 5
2C5
 100
AcDbEntity
 8
0
 100
AcDbPoint
 62
   256
 10
-90.79856618
 20
-123.23091566
 30
13.22210402
 0
POINT
 5
2C6
 100
AcDbEntity
 8
0
 100
AcDbPoint
 62
   256
 10
-155.69388994
 20
-308.67146372
 30
26.56538986
 0
POINT
 5
2C7
 100
AcDbEntity
 8
0
 100
AcDbPoint
 62
   256
 10
-211.37959947
 20
-502.18400306
 30
37.39262767
 0
POINT
 5
2C8
 100
AcDbEntity
 8
0
 100
AcDbPoint
 62
   256
 10
-244.56317955
 20
-695.27986879
 30
50.77365407
 0
POINT
 5
2C9
 100
AcDbEntity
 8
0
 100
AcDbPoint
 62
   256
 10
-213.36802653
 20
-781.13430899
 30
62.32285015
 0
POINT
 5
2CA
 100
AcDbEntity
 8
0
 100
AcDbPoint
 62
   256
 10
-139.05049133
 20
-831.79786412
 30
77.72720950
 0
LINE
 5
2CB
 100
AcDbEntity
 8
0
 100
AcDbLine
 62
   256
 10
90.69285322
 20
-836.02100715
 30
107.51628771
 11
1372.55332708
 21
-667.29103040
 31
39.26300761
 0
LINE
 5
2CC
 100
AcDbEntity
 8
0
 100
AcDbLine
 62
   256
 10
1372.55332708
 20
-667.29103040
 30
39.26300761
 11
1301.07438609
 21
-715.85028525
 31
60.74862224
 0
LINE
 5
2CD
 100
AcDbEntity
 8
0
 100
AcDbLine
 62
   256
 10
1301.07438609
 20
-715.85028525
 30
60.74862224
 11
1076.83321210
 21
-769.83594716
 31
94.14695923
 0
LINE
 5
2CE
 100
AcDbEntity
 8
0
 100
AcDbLine
 62
   256
 10
1076.83321210
 20
-769.83594716
 30
94.14695923
 11
868.38205537
 21
-785.09190010
 31
80.98501326
 0
LINE
 5
2CF
 100
AcDbEntity
 8
0
 100
AcDbLine
 62
   256
 10
868.38205537
 20
-785.09190010
 30
80.98501326
 11
1469.16855484
 21
-908.32719745
 31
38.89701339
 0
LINE
 5
2D0
 100
AcDbEntity
 8
0
 100
AcDbLine
 62
   256
 10
1469.16855484
 20
-908.32719745
 30
38.89701339
 11
1448.29269323
 21
-906.55354571
 31
40.08840031
 0
LINE
 5
2D1
 100
AcDbEntity
 8
0
 100
AcDbLine
 62
   256
 10
1304.84759415
 20
-879.00061544
 30
48.83565743
 11
1151.28061928
 21
-853.67516432
 31
59.25852966
 0
LINE
 5
2D2
 100
AcDbEntity
 8
0
 100
AcDbLine
 62
   256
 10
1004.52856260
 20
-820.98496749
 30
71.78583504
 11
984.37551419
 21
-813.75265202
 31
76.36907874
 0
POINT
 5
2D3
 100
AcDbEntity
 8
0
 100
AcDbPoint
 62
   256
 10
680.48238326
 20
-810.33314779
 30
110.10084760
 0
POINT
 5
2D4
 100
AcDbEntity
 8
0
 100
AcDbPoint
 62
   256
 10
496.74246654
 20
-825.76079582
 30
111.63893840
 0
POINT
 5
2D5
 100
AcDbEntity
 8
0
 100
AcDbPoint
 62
   256
 10
902.87083796
 20
-1316.93174003
 30
440.02612522
 0
POINT
 5
2D6
 100
AcDbEntity
 8
0
 100
AcDbPoint
 62
   256
 10
932.45196841
 20
-1321.75453565
 30
439.06387141
 0
POINT
 5
2D7
 100
AcDbEntity
 8
0
 100
AcDbPoint
 62
   256
 10
1110.79388477
 20
-1353.68144891
 30
422.47371784
 0
POINT
 5
2D8
 100
AcDbEntity
 8
0
 100
AcDbPoint
 62
   256
 10
1291.78324258
 20
-1377.01566376
 30
404.58473442
 0
POINT
 5
2D9
 100
AcDbEntity
 8
0
 100
AcDbPoint
 62
   256
 10
1482.41835149
 20
-1396.69166684
 30
379.24239162
 0
POINT
 5
2DA
 100
AcDbEntity
 8
0
 100
AcDbPoint
 62
   256
 10
1521.89335941
 20
-1393.67988735
 30
368.94013881
 0
POINT
 5
2DB
 100
AcDbEntity
 8
0
 100
AcDbPoint
 62
   256
 10
812.20965456
 20
-1307.92335510
 30
445.07843544
 0
POINT
 5
2DC
 100
AcDbEntity
 8
0
 100
AcDbPoint
 62
   256
 10
642.97135629
 20
-1314.77101523
 30
446.92259229
 0
POINT
 5
2DD
 100
AcDbEntity
 8
0
 100
AcDbPoint
 62
   256
 10
464.40394676
 20
-1334.58131787
 30
448.16012310
 0
POINT
 5
2DE
 100
AcDbEntity
 8
0
 100
AcDbPoint
 62
   256
 10
-245.93503367
 20
-1525.17273602
 30
406.42674349
 0
POINT
 5
2DF
 100
AcDbEntity
 8
0
 100
AcDbPoint
 62
   256
 10
-206.39032133
 20
-1517.91123125
 30
410.40410006
 0
POINT
 5
2E0
 100
AcDbEntity
 8
0
 100
AcDbPoint
 62
   256
 10
-28.36932904
 20
-1470.84325973
 30
426.19724966
 0
POINT
 5
2E1
 100
AcDbEntity
 8
0
 100
AcDbPoint
 62
   256
 10
144.97043155
 20
-1421.35408740
 30
438.65651130
 0
POINT
 5
2E2
 100
AcDbEntity
 8
0
 100
AcDbPoint
 62
   256
 10
319.32423685
 20
-1367.16984634
 30
449.66365794
 0
LINE
 5
2E3
 100
AcDbEntity
 8
0
 100
AcDbLine
 62
   256
 10
394.37083767
 20
838.67876898
 30
-105.65295199
 11
343.68514498
 21
803.38138897
 31
-104.40396581
 0
LINE
 5
2E4
 100
AcDbEntity
 8
0
 100
AcDbLine
 62
   256
 10
343.68514498
 20
803.38138897
 30
-104.40396581
 11
236.95060521
 21
700.13931942
 31
-99.63407554
 0
LINE
 5
2E5
 100
AcDbEntity
 8
0
 100
AcDbLine
 62
   256
 10
236.95060521
 20
700.13931942
 30
-99.63407554
 11
151.07036077
 21
596.04892314
 31
-95.35968862
 0
LINE
 5
2E6
 100
AcDbEntity
 8
0
 100
AcDbLine
 62
   256
 10
151.07036077
 20
596.04892314
 30
-95.35968862
 11
76.05771988
 21
489.40245012
 31
-91.46298338
 0
LINE
 5
2E7
 100
AcDbEntity
 8
0
 100
AcDbLine
 62
   256
 10
76.05771988
 20
489.40245012
 30
-91.46298338
 11
-2.86179867
 21
358.55132798
 31
-90.83548121
 0
LINE
 5
2E8
 100
AcDbEntity
 8
0
 100
AcDbLine
 62
   256
 10
-2.86179867
 20
358.55132798
 30
-90.83548121
 11
-85.62424346
 21
196.22996504
 31
-86.80192607
 0
LINE
 5
2E9
 100
AcDbEntity
 8
0
 100
AcDbLine
 62
   256
 10
-85.62424346
 20
196.22996504
 30
-86.80192607
 11
-153.31065111
 21
39.50840616
 31
-81.89246641
 0
LINE
 5
2EA
 100
AcDbEntity
 8
0
 100
AcDbLine
 62
   256
 10
-153.31065111
 20
39.50840616
 30
-81.89246641
 11
-261.02215057
 21
-278.57565130
 31
-74.42637946
 0
LINE
 5
2EB
 100
AcDbEntity
 8
0
 100
AcDbLine
 62
   256
 10
-261.02215057
 20
-278.57565130
 30
-74.42637946
 11
-288.03682297
 21
-382.57685952
 31
-72.66388369
 0
LINE
 5
2EC
 100
AcDbEntity
 8
0
 100
AcDbLine
 62
   256
 10
-288.03682297
 20
-382.57685952
 30
-72.66388369
 11
-312.36310841
 21
-491.84839726
 31
-72.00281259
 0
LINE
 5
2ED
 100
AcDbEntity
 8
0
 100
AcDbLine
 62
   256
 10
-312.36310841
 20
-491.84839726
 30
-72.00281259
 11
-339.67880635
 21
-643.83939221
 31
-71.43981980
 0
LINE
 5
2EE
 100
AcDbEntity
 8
0
 100
AcDbLine
 62
   256
 10
-339.67880635
 20
-643.83939221
 30
-71.43981980
 11
-350.60696352
 21
-717.39218148
 31
-70.58838607
 0
LINE
 5
2EF
 100
AcDbEntity
 8
0
 100
AcDbLine
 62
   256
 10
-350.60696352
 20
-717.39218148
 30
-70.58838607
 11
-358.15975437
 21
-779.66555528
 31
-70.53605324
 0
LINE
 5
2F0
 100
AcDbEntity
 8
0
 100
AcDbLine
 62
   256
 10
-358.15975437
 20
-779.66555528
 30
-70.53605324
 11
-362.60942566
 21
-821.34534257
 31
-69.48778482
 0
LINE
 5
2F1
 100
AcDbEntity
 8
0
 100
AcDbLine
 62
   256
 10
-362.60942566
 20
-821.34534257
 30
-69.48778482
 11
-371.72195021
 21
-931.52116856
 31
-69.23794824
 0
LINE
 5
2F2
 100
AcDbEntity
 8
0
 100
AcDbLine
 62
   256
 10
-371.72195021
 20
-931.52116856
 30
-69.23794824
 11
-379.03388576
 21
-1058.38843005
 31
-69.36289632
 0
LINE
 5
2F3
 100
AcDbEntity
 8
0
 100
AcDbLine
 62
   256
 10
-379.03388576
 20
-1058.38843005
 30
-69.36289632
 11
-381.16205386
 21
-1127.99748297
 31
-69.20606810
 0
LINE
 5
2F4
 100
AcDbEntity
 8
0
 100
AcDbLine
 62
   256
 10
-381.16205386
 20
-1127.99748297
 30
-69.20606810
 11
-382.33567584
 21
-1365.64796677
 31
-71.33349505
 0
LINE
 5
2F5
 100
AcDbEntity
 8
0
 100
AcDbLine
 62
   256
 10
-382.33567584
 20
-1365.64796677
 30
-71.33349505
 11
-378.40985604
 21
-1562.74046346
 31
-74.71066503
 0
LINE
 5
2F6
 100
AcDbEntity
 8
0
 100
AcDbLine
 62
   256
 10
-378.40985604
 20
-1562.74046346
 30
-74.71066503
 11
-367.45507004
 21
-1825.58256918
 31
-81.04215680
 0
LINE
 5
2F7
 100
AcDbEntity
 8
0
 100
AcDbLine
 62
   256
 10
-367.45507004
 20
-1825.58256918
 30
-81.04215680
 11
-356.77983779
 21
-2029.14021612
 31
-86.71504521
 0
LINE
 5
2F8
 100
AcDbEntity
 8
0
 100
AcDbLine
 62
   256
 10
-356.77983779
 20
-2029.14021612
 30
-86.71504521
 11
-340.15295011
 21
-2328.95092722
 31
-97.41198434
 0
LINE
 5
2F9
 100
AcDbEntity
 8
0
 100
AcDbLine
 62
   256
 10
-340.15295011
 20
-2328.95092722
 30
-97.41198434
 11
-328.92811937
 21
-2526.62127236
 31
-104.50828805
 0
LINE
 5
2FA
 100
AcDbEntity
 8
0
 100
AcDbLine
 62
   256
 10
-328.92811937
 20
-2526.62127236
 30
-104.50828805
 11
-312.70134340
 21
-2797.01697058
 31
-117.77435788
 0
LINE
 5
2FB
 100
AcDbEntity
 8
0
 100
AcDbLine
 62
   256
 10
-312.70134340
 20
-2797.01697058
 30
-117.77435788
 11
-297.35356068
 21
-3001.63611932
 31
-133.18077277
 0
LINE
 5
2FC
 100
AcDbEntity
 8
0
 100
AcDbLine
 62
   256
 10
-297.35356068
 20
-3001.63611932
 30
-133.18077277
 11
-287.07747020
 21
-3134.63546838
 31
-144.17052648
 0
LINE
 5
2FD
 100
AcDbEntity
 8
0
 100
AcDbLine
 62
   256
 10
-287.07747020
 20
-3134.63546838
 30
-144.17052648
 11
-271.50544931
 21
-3351.61931124
 31
-160.38817645
 0
LINE
 5
2FE
 100
AcDbEntity
 8
0
 100
AcDbLine
 62
   256
 10
-271.50544931
 20
-3351.61931124
 30
-160.38817645
 11
-255.92767859
 21
-3558.13847535
 31
-176.58701723
 0
LINE
 5
2FF
 100
AcDbEntity
 8
0
 100
AcDbLine
 62
   256
 10
-255.92767859
 20
-3558.13847535
 30
-176.58701723
 11
-240.64198557
 21
-3787.70561400
 31
-199.83329263
 0
LINE
 5
300
 100
AcDbEntity
 8
0
 100
AcDbLine
 62
   256
 10
-240.64198557
 20
-3787.70561400
 30
-199.83329263
 11
-226.67748275
 21
-3981.63782264
 31
-218.39286167
 0
LINE
 5
301
 100
AcDbEntity
 8
0
 100
AcDbLine
 62
   256
 10
-226.67748275
 20
-3981.63782264
 30
-218.39286167
 11
-217.03716939
 21
-4126.96775553
 31
-231.44891627
 0
LINE
 5
302
 100
AcDbEntity
 8
0
 100
AcDbLine
 62
   256
 10
-217.03716939
 20
-4126.96775553
 30
-231.44891627
 11
-195.97329460
 21
-4251.54941203
 31
-239.30237148
 0
LINE
 5
303
 100
AcDbEntity
 8
0
 100
AcDbLine
 62
   256
 10
-195.97329460
 20
-4251.54941203
 30
-239.30237148
 11
-175.51907542
 21
-4317.54812993
 31
-241.58823758
 0
LINE
 5
304
 100
AcDbEntity
 8
0
 100
AcDbLine
 62
   256
 10
439.93706482
 20
628.71849716
 30
-47.90649729
 11
395.48407084
 21
610.27656059
 31
-47.15283368
 0
LINE
 5
305
 100
AcDbEntity
 8
0
 100
AcDbLine
 62
   256
 10
395.48407084
 20
610.27656059
 30
-47.15283368
 11
342.09986613
 21
580.06635013
 31
-43.84821674
 0
LINE
 5
306
 100
AcDbEntity
 8
0
 100
AcDbLine
 62
   256
 10
342.09986613
 20
580.06635013
 30
-43.84821674
 11
285.22600414
 21
534.08972359
 31
-39.38894535
 0
LINE
 5
307
 100
AcDbEntity
 8
0
 100
AcDbLine
 62
   256
 10
285.22600414
 20
534.08972359
 30
-39.38894535
 11
260.39335760
 21
511.64595732
 31
-38.61676181
 0
LINE
 5
308
 100
AcDbEntity
 8
0
 100
AcDbLine
 62
   256
 10
260.39335760
 20
511.64595732
 30
-38.61676181
 11
226.11114935
 21
473.06753866
 31
-33.91078866
 0
LINE
 5
309
 100
AcDbEntity
 8
0
 100
AcDbLine
 62
   256
 10
226.11114935
 20
473.06753866
 30
-33.91078866
 11
186.45619158
 21
426.46821106
 31
-30.33211596
 0
LINE
 5
30A
 100
AcDbEntity
 8
0
 100
AcDbLine
 62
   256
 10
186.45619158
 20
426.46821106
 30
-30.33211596
 11
115.65872421
 21
327.45950364
 31
-22.57824383
 0
LINE
 5
30B
 100
AcDbEntity
 8
0
 100
AcDbLine
 62
   256
 10
115.65872421
 20
327.45950364
 30
-22.57824383
 11
91.79503782
 21
287.00038432
 31
-18.22925727
 0
LINE
 5
30C
 100
AcDbEntity
 8
0
 100
AcDbLine
 62
   256
 10
91.79503782
 20
287.00038432
 30
-18.22925727
 11
69.04547209
 21
252.02632032
 31
-16.48472187
 0
LINE
 5
30D
 100
AcDbEntity
 8
0
 100
AcDbLine
 62
   256
 10
69.04547209
 20
252.02632032
 30
-16.48472187
 11
30.98235116
 21
184.79254743
 31
-11.31189413
 0
LINE
 5
30E
 100
AcDbEntity
 8
0
 100
AcDbLine
 62
   256
 10
30.98235116
 20
184.79254743
 30
-11.31189413
 11
-2.26849406
 21
120.53126668
 31
-6.11214211
 0
LINE
 5
30F
 100
AcDbEntity
 8
0
 100
AcDbLine
 62
   256
 10
-2.26849406
 20
120.53126668
 30
-6.11214211
 11
-29.28206334
 21
66.88573248
 31
-2.78712289
 0
LINE
 5
310
 100
AcDbEntity
 8
0
 100
AcDbLine
 62
   256
 10
-29.28206334
 20
66.88573248
 30
-2.78712289
 11
-68.17515408
 21
-20.12144619
 31
3.63153412
 0
LINE
 5
311
 100
AcDbEntity
 8
0
 100
AcDbLine
 62
   256
 10
-68.17515408
 20
-20.12144619
 30
3.63153412
 11
-99.61173460
 21
-92.50033340
 31
8.04808016
 0
LINE
 5
312
 100
AcDbEntity
 8
0
 100
AcDbLine
 62
   256
 10
-99.61173460
 20
-92.50033340
 30
8.04808016
 11
-130.07393582
 21
-167.89705025
 31
12.74224084
 0
LINE
 5
313
 100
AcDbEntity
 8
0
 100
AcDbLine
 62
   256
 10
-130.07393582
 20
-167.89705025
 30
12.74224084
 11
-161.31817324
 21
-252.57071860
 31
18.08423540
 0
LINE
 5
314
 100
AcDbEntity
 8
0
 100
AcDbLine
 62
   256
 10
-161.31817324
 20
-252.57071860
 30
18.08423540
 11
-171.18322353
 21
-288.76072250
 31
22.20330769
 0
LINE
 5
315
 100
AcDbEntity
 8
0
 100
AcDbLine
 62
   256
 10
-171.18322353
 20
-288.76072250
 30
22.20330769
 11
-186.45383437
 21
-346.05932494
 31
27.04070817
 0
LINE
 5
316
 100
AcDbEntity
 8
0
 100
AcDbLine
 62
   256
 10
-186.45383437
 20
-346.05932494
 30
27.04070817
 11
-214.08349881
 21
-428.91256989
 31
30.85499224
 0
LINE
 5
317
 100
AcDbEntity
 8
0
 100
AcDbLine
 62
   256
 10
-214.08349881
 20
-428.91256989
 30
30.85499224
 11
-228.51711624
 21
-491.21801074
 31
34.84581455
 0
LINE
 5
318
 100
AcDbEntity
 8
0
 100
AcDbLine
 62
   256
 10
-228.51711624
 20
-491.21801074
 30
34.84581455
 11
-241.83214271
 21
-540.94674240
 31
37.12139452
 0
LINE
 5
319
 100
AcDbEntity
 8
0
 100
AcDbLine
 62
   256
 10
-241.83214271
 20
-540.94674240
 30
37.12139452
 11
-258.64613248
 21
-611.32283422
 31
40.21420214
 0
LINE
 5
31A
 100
AcDbEntity
 8
0
 100
AcDbLine
 62
   256
 10
-258.64613248
 20
-611.32283422
 30
40.21420214
 11
-270.24889742
 21
-684.93178964
 31
45.92635402
 0
LINE
 5
31B
 100
AcDbEntity
 8
0
 100
AcDbLine
 62
   256
 10
-270.24889742
 20
-684.93178964
 30
45.92635402
 11
-273.33349045
 21
-721.72835156
 31
49.60145986
 0
LINE
 5
31C
 100
AcDbEntity
 8
0
 100
AcDbLine
 62
   256
 10
-273.33349045
 20
-721.72835156
 30
49.60145986
 11
-267.10527765
 21
-759.69435090
 31
55.65739257
 0
LINE
 5
31D
 100
AcDbEntity
 8
0
 100
AcDbLine
 62
   256
 10
-267.10527765
 20
-759.69435090
 30
55.65739257
 11
-249.32521760
 21
-797.27915915
 31
61.17341079
 0
LINE
 5
31E
 100
AcDbEntity
 8
0
 100
AcDbLine
 62
   256
 10
-249.32521760
 20
-797.27915915
 30
61.17341079
 11
-217.26831713
 21
-831.22892588
 31
66.36975916
 0
LINE
 5
31F
 100
AcDbEntity
 8
0
 100
AcDbLine
 62
   256
 10
-217.26831713
 20
-831.22892588
 30
66.36975916
 11
-192.04521051
 21
-851.19651114
 31
69.59902806
 0
LINE
 5
320
 100
AcDbEntity
 8
0
 100
AcDbLine
 62
   256
 10
-192.04521051
 20
-851.19651114
 30
69.59902806
 11
-161.34384302
 21
-860.93391288
 31
72.23248339
 0
LINE
 5
321
 100
AcDbEntity
 8
0
 100
AcDbLine
 62
   256
 10
-161.34384302
 20
-860.93391288
 30
72.23248339
 11
-125.04785243
 21
-861.98896669
 31
77.77925941
 0
LINE
 5
322
 100
AcDbEntity
 8
0
 100
AcDbLine
 62
   256
 10
-125.04785243
 20
-861.98896669
 30
77.77925941
 11
-83.52555287
 21
-862.75213918
 31
86.63355565
 0
LINE
 5
323
 100
AcDbEntity
 8
0
 100
AcDbLine
 62
   256
 10
-83.52555287
 20
-862.75213918
 30
86.63355565
 11
-37.07681298
 21
-863.95641162
 31
95.39814905
 0
LINE
 5
324
 100
AcDbEntity
 8
0
 100
AcDbLine
 62
   256
 10
-37.07681298
 20
-863.95641162
 30
95.39814905
 11
14.64964494
 21
-867.59390729
 31
100.82240377
 0
LINE
 5
325
 100
AcDbEntity
 8
0
 100
AcDbLine
 62
   256
 10
14.64964494
 20
-867.59390729
 30
100.82240377
 11
29.20333985
 21
-867.55629853
 31
101.92769694
 0
LINE
 5
326
 100
AcDbEntity
 8
0
 100
AcDbLine
 62
   256
 10
-111.40226465
 20
-738.45945939
 30
94.43188586
 11
-100.97751006
 21
-746.54872476
 31
108.52576185
 0
LINE
 5
327
 100
AcDbEntity
 8
0
 100
AcDbLine
 62
   256
 10
-100.97751006
 20
-746.54872476
 30
108.52576185
 11
-83.81246377
 21
-750.84099344
 31
114.60435731
 0
LINE
 5
328
 100
AcDbEntity
 8
0
 100
AcDbLine
 62
   256
 10
-83.81246377
 20
-750.84099344
 30
114.60435731
 11
-41.53304496
 21
-751.12568387
 31
121.74462773
 0
LINE
 5
329
 100
AcDbEntity
 8
0
 100
AcDbLine
 62
   256
 10
-41.53304496
 20
-751.12568387
 30
121.74462773
 11
15.06044616
 21
-753.57127401
 31
126.15302898
 0
LINE
 5
32A
 100
AcDbEntity
 8
0
 100
AcDbLine
 62
   256
 10
15.06044616
 20
-753.57127401
 30
126.15302898
 11
65.16218097
 21
-755.09373796
 31
128.72311659
 0
LINE
 5
32B
 100
AcDbEntity
 8
0
 100
AcDbLine
 62
   256
 10
65.16218097
 20
-755.09373796
 30
128.72311659
 11
116.59060015
 21
-756.09194913
 31
128.58260054
 0
LINE
 5
32C
 100
AcDbEntity
 8
0
 100
AcDbLine
 62
   256
 10
116.59060015
 20
-756.09194913
 30
128.58260054
 11
161.82532024
 21
-752.97102841
 31
122.57597610
 0
LINE
 5
32D
 100
AcDbEntity
 8
0
 100
AcDbLine
 62
   256
 10
161.82532024
 20
-752.97102841
 30
122.57597610
 11
200.63470502
 21
-752.96262225
 31
119.72285012
 0
LINE
 5
32E
 100
AcDbEntity
 8
0
 100
AcDbLine
 62
   256
 10
200.63470502
 20
-752.96262225
 30
119.72285012
 11
234.52904760
 21
-752.01391266
 31
112.62283268
 0
LINE
 5
32F
 100
AcDbEntity
 8
0
 100
AcDbLine
 62
   256
 10
234.52904760
 20
-752.01391266
 30
112.62283268
 11
266.66769089
 21
-751.80485986
 31
106.19270832
 0
LINE
 5
330
 100
AcDbEntity
 8
0
 100
AcDbLine
 62
   256
 10
266.66769089
 20
-751.80485986
 30
106.19270832
 11
283.27681142
 21
-750.20897235
 31
100.20022889
 0
LINE
 5
331
 100
AcDbEntity
 8
0
 100
AcDbLine
 62
   256
 10
283.27681142
 20
-750.20897235
 30
100.20022889
 11
295.15744319
 21
-743.56572152
 31
88.20240989
 0
LINE
 5
332
 100
AcDbEntity
 8
0
 100
AcDbLine
 62
   256
 10
295.15744319
 20
-743.56572152
 30
88.20240989
 11
295.96892597
 21
-739.57162493
 31
79.01986952
 0
LINE
 5
333
 100
AcDbEntity
 8
0
 100
AcDbLine
 62
   256
 10
295.96892597
 20
-739.57162493
 30
79.01986952
 11
297.64977318
 21
-735.98168998
 31
67.75785968
 0
LINE
 5
334
 100
AcDbEntity
 8
0
 100
AcDbLine
 62
   256
 10
-304.69354743
 20
-880.98537436
 30
55.33365745
 11
-312.36727611
 21
-973.48015375
 31
59.95849151
 0
LINE
 5
335
 100
AcDbEntity
 8
0
 100
AcDbLine
 62
   256
 10
-312.36727611
 20
-973.48015375
 30
59.95849151
 11
-320.29142830
 21
-1062.59188252
 31
61.51600081
 0
LINE
 5
336
 100
AcDbEntity
 8
0
 100
AcDbLine
 62
   256
 10
-320.29142830
 20
-1062.59188252
 30
61.51600081
 11
-320.93301716
 21
-1127.54128539
 31
67.13441719
 0
LINE
 5
337
 100
AcDbEntity
 8
0
 100
AcDbLine
 62
   256
 10
-320.93301716
 20
-1127.54128539
 30
67.13441719
 11
-322.56179124
 21
-1234.66818926
 31
64.92259871
 0
LINE
 5
338
 100
AcDbEntity
 8
0
 100
AcDbLine
 62
   256
 10
-322.56179124
 20
-1234.66818926
 30
64.92259871
 11
-323.15453652
 21
-1353.77581838
 31
64.59633467
 0
LINE
 5
339
 100
AcDbEntity
 8
0
 100
AcDbLine
 62
   256
 10
-323.15453652
 20
-1353.77581838
 30
64.59633467
 11
-323.27151075
 21
-1425.99119832
 31
64.46625467
 0
LINE
 5
33A
 100
AcDbEntity
 8
0
 100
AcDbLine
 62
   256
 10
-323.27151075
 20
-1425.99119832
 30
64.46625467
 11
-322.27498423
 21
-1523.74723401
 31
64.85309888
 0
LINE
 5
33B
 100
AcDbEntity
 8
0
 100
AcDbLine
 62
   256
 10
-322.27498423
 20
-1523.74723401
 30
64.85309888
 11
-319.20899719
 21
-1624.76777793
 31
67.14723602
 0
LINE
 5
33C
 100
AcDbEntity
 8
0
 100
AcDbLine
 62
   256
 10
-319.20899719
 20
-1624.76777793
 30
67.14723602
 11
-316.72489375
 21
-1747.49483249
 31
69.33893323
 0
LINE
 5
33D
 100
AcDbEntity
 8
0
 100
AcDbLine
 62
   256
 10
-316.72489375
 20
-1747.49483249
 30
69.33893323
 11
-313.16205550
 21
-1846.50571648
 31
71.74003161
 0
LINE
 5
33E
 100
AcDbEntity
 8
0
 100
AcDbLine
 62
   256
 10
-313.16205550
 20
-1846.50571648
 30
71.74003161
 11
-308.33689928
 21
-1956.68340164
 31
75.54647574
 0
LINE
 5
33F
 100
AcDbEntity
 8
0
 100
AcDbLine
 62
   256
 10
-308.33689928
 20
-1956.68340164
 30
75.54647574
 11
-300.15348953
 21
-2102.40243716
 31
81.61554809
 0
LINE
 5
340
 100
AcDbEntity
 8
0
 100
AcDbLine
 62
   256
 10
-300.15348953
 20
-2102.40243716
 30
81.61554809
 11
-296.51528352
 21
-2147.14738677
 31
83.80919590
 0
LINE
 5
341
 100
AcDbEntity
 8
0
 100
AcDbLine
 62
   256
 10
-296.51528352
 20
-2147.14738677
 30
83.80919590
 11
-291.90235766
 21
-2214.67240180
 31
86.30986897
 0
LINE
 5
342
 100
AcDbEntity
 8
0
 100
AcDbLine
 62
   256
 10
-291.90235766
 20
-2214.67240180
 30
86.30986897
 11
-286.60716318
 21
-2297.28820686
 31
90.08292017
 0
LINE
 5
343
 100
AcDbEntity
 8
0
 100
AcDbLine
 62
   256
 10
-286.60716318
 20
-2297.28820686
 30
90.08292017
 11
-284.54089568
 21
-2338.67803513
 31
91.37438917
 0
LINE
 5
344
 100
AcDbEntity
 8
0
 100
AcDbLine
 62
   256
 10
-284.54089568
 20
-2338.67803513
 30
91.37438917
 11
-278.14813823
 21
-2415.22656212
 31
95.64935065
 0
LINE
 5
345
 100
AcDbEntity
 8
0
 100
AcDbLine
 62
   256
 10
-278.14813823
 20
-2415.22656212
 30
95.64935065
 11
-271.58392814
 21
-2494.24474926
 31
94.47360856
 0
LINE
 5
346
 100
AcDbEntity
 8
0
 100
AcDbLine
 62
   256
 10
-271.58392814
 20
-2494.24474926
 30
94.47360856
 11
-263.70356152
 21
-2589.55586388
 31
90.09262395
 0
LINE
 5
347
 100
AcDbEntity
 8
0
 100
AcDbLine
 62
   256
 10
-263.70356152
 20
-2589.55586388
 30
90.09262395
 11
-253.24354901
 21
-2695.21324395
 31
85.04787009
 0
LINE
 5
348
 100
AcDbEntity
 8
0
 100
AcDbLine
 62
   256
 10
-253.24354901
 20
-2695.21324395
 30
85.04787009
 11
-246.71669725
 21
-2772.98599848
 31
79.67109564
 0
LINE
 5
349
 100
AcDbEntity
 8
0
 100
AcDbLine
 62
   256
 10
-246.71669725
 20
-2772.98599848
 30
79.67109564
 11
-237.02030918
 21
-2859.81330537
 31
73.37849534
 0
LINE
 5
34A
 100
AcDbEntity
 8
0
 100
AcDbLine
 62
   256
 10
-237.02030918
 20
-2859.81330537
 30
73.37849534
 11
-227.20824288
 21
-2946.22142009
 31
65.36067770
 0
LINE
 5
34B
 100
AcDbEntity
 8
0
 100
AcDbLine
 62
   256
 10
-227.20824288
 20
-2946.22142009
 30
65.36067770
 11
-218.47731426
 21
-3027.42857069
 31
56.99436772
 0
LINE
 5
34C
 100
AcDbEntity
 8
0
 100
AcDbLine
 62
   256
 10
-218.47731426
 20
-3027.42857069
 30
56.99436772
 11
-210.49668565
 21
-3100.74474857
 31
46.56668721
 0
LINE
 5
34D
 100
AcDbEntity
 8
0
 100
AcDbLine
 62
   256
 10
-210.49668565
 20
-3100.74474857
 30
46.56668721
 11
-201.70165017
 21
-3150.48045289
 31
41.23801290
 0
LINE
 5
34E
 100
AcDbEntity
 8
0
 100
AcDbLine
 62
   256
 10
-201.70165017
 20
-3150.48045289
 30
41.23801290
 11
-199.26717184
 21
-3192.04686889
 31
34.38719311
 0
LINE
 5
34F
 100
AcDbEntity
 8
0
 100
AcDbLine
 62
   256
 10
-289.07651781
 20
-2626.42676726
 30
18.51352959
 11
-277.63657202
 21
-2749.33495238
 31
16.73180584
 0
LINE
 5
350
 100
AcDbEntity
 8
0
 100
AcDbLine
 62
   256
 10
-277.63657202
 20
-2749.33495238
 30
16.73180584
 11
-265.80616768
 21
-2880.46662051
 31
12.49926316
 0
LINE
 5
351
 100
AcDbEntity
 8
0
 100
AcDbLine
 62
   256
 10
-265.80616768
 20
-2880.46662051
 30
12.49926316
 11
-256.99688992
 21
-2984.60246212
 31
9.78887408
 0
LINE
 5
352
 100
AcDbEntity
 8
0
 100
AcDbLine
 62
   256
 10
-256.99688992
 20
-2984.60246212
 30
9.78887408
 11
-247.27508205
 21
-3083.06137175
 31
6.23136592
 0
LINE
 5
353
 100
AcDbEntity
 8
0
 100
AcDbLine
 62
   256
 10
-247.27508205
 20
-3083.06137175
 30
6.23136592
 11
-239.65013050
 21
-3168.96108859
 31
1.39023350
 0
LINE
 5
354
 100
AcDbEntity
 8
0
 100
AcDbLine
 62
   256
 10
-239.65013050
 20
-3168.96108859
 30
1.39023350
 11
-229.70495057
 21
-3255.23502959
 31
-3.30472826
 0
LINE
 5
355
 100
AcDbEntity
 8
0
 100
AcDbLine
 62
   256
 10
-229.70495057
 20
-3255.23502959
 30
-3.30472826
 11
-218.84468090
 21
-3358.61802251
 31
-8.08167969
 0
LINE
 5
356
 100
AcDbEntity
 8
0
 100
AcDbLine
 62
   256
 10
-218.84468090
 20
-3358.61802251
 30
-8.08167969
 11
-210.64589499
 21
-3425.87931163
 31
-11.77982389
 0
LINE
 5
357
 100
AcDbEntity
 8
0
 100
AcDbLine
 62
   256
 10
-210.64589499
 20
-3425.87931163
 30
-11.77982389
 11
-201.88316666
 21
-3510.53611258
 31
-17.05756036
 0
LINE
 5
358
 100
AcDbEntity
 8
0
 100
AcDbLine
 62
   256
 10
-201.88316666
 20
-3510.53611258
 30
-17.05756036
 11
-190.12655385
 21
-3623.33845345
 31
-25.21675137
 0
LINE
 5
359
 100
AcDbEntity
 8
0
 100
AcDbLine
 62
   256
 10
-190.12655385
 20
-3623.33845345
 30
-25.21675137
 11
-180.97012706
 21
-3681.96451257
 31
-29.69099568
 0
LINE
 5
35A
 100
AcDbEntity
 8
0
 100
AcDbLine
 62
   256
 10
-180.97012706
 20
-3681.96451257
 30
-29.69099568
 11
-174.00478788
 21
-3738.40732653
 31
-34.26979139
 0
LINE
 5
35B
 100
AcDbEntity
 8
0
 100
AcDbLine
 62
   256
 10
-174.00478788
 20
-3738.40732653
 30
-34.26979139
 11
-163.57021578
 21
-3820.53484374
 31
-37.97780573
 0
LINE
 5
35C
 100
AcDbEntity
 8
0
 100
AcDbLine
 62
   256
 10
-163.57021578
 20
-3820.53484374
 30
-37.97780573
 11
-151.40582523
 21
-3891.98941630
 31
-41.17188706
 0
LINE
 5
35D
 100
AcDbEntity
 8
0
 100
AcDbLine
 62
   256
 10
-333.34517869
 20
-1159.09030409
 30
55.78827947
 11
-333.87380561
 21
-1159.38405592
 31
57.05618447
 0
POINT
 5
35E
 100
AcDbEntity
 8
0
 100
AcDbPoint
 62
   256
 10
-334.16348679
 20
-1381.00830765
 30
57.14605767
 0
POINT
 5
35F
 100
AcDbEntity
 8
0
 100
AcDbPoint
 62
   256
 10
-328.76604932
 20
-1606.41025868
 30
63.10987235
 0
POINT
 5
360
 100
AcDbEntity
 8
0
 100
AcDbPoint
 62
   256
 10
-327.03127498
 20
-1653.05185368
 30
65.71717189
 0
POINT
 5
361
 100
AcDbEntity
 8
0
 100
AcDbPoint
 62
   256
 10
-317.86390294
 20
-1921.99682785
 30
71.14477044
 0
POINT
 5
362
 100
AcDbEntity
 8
0
 100
AcDbPoint
 62
   256
 10
-301.26118846
 20
-2189.00435050
 30
83.18069100
 0
POINT
 5
363
 100
AcDbEntity
 8
0
 100
AcDbPoint
 62
   256
 10
-287.24120786
 20
-2443.34074314
 30
84.52351704
 0
POINT
 5
364
 100
AcDbEntity
 8
0
 100
AcDbPoint
 62
   256
 10
-284.07937824
 20
-2488.59613000
 30
83.73659896
 0
LINE
 5
365
 100
AcDbEntity
 8
0
 100
AcDbLine
 62
   256
 10
-244.69892572
 20
-2447.02920872
 30
104.12058017
 11
-247.69970067
 21
-2490.53494137
 31
107.44216297
 0
LINE
 5
366
 100
AcDbEntity
 8
0
 100
AcDbLine
 62
   256
 10
-245.18373738
 20
-2436.48634438
 30
101.17017427
 11
-251.55059545
 21
-2437.02739066
 31
100.68490684
 0
LINE
 5
367
 100
AcDbEntity
 8
0
 100
AcDbLine
 62
   256
 10
-251.55059545
 20
-2437.02739066
 30
100.68490684
 11
-257.00324064
 21
-2438.61992995
 31
100.23792158
 0
LINE
 5
368
 100
AcDbEntity
 8
0
 100
AcDbLine
 62
   256
 10
-257.00324064
 20
-2438.61992995
 30
100.23792158
 11
-255.03654777
 21
-2440.76274835
 31
104.97972927
 0
LINE
 5
369
 100
AcDbEntity
 8
0
 100
AcDbLine
 62
   256
 10
-255.03654777
 20
-2440.76274835
 30
104.97972927
 11
-254.67317772
 21
-2446.34484165
 31
105.27101713
 0
LINE
 5
36A
 100
AcDbEntity
 8
0
 100
AcDbLine
 62
   256
 10
-254.67317772
 20
-2446.34484165
 30
105.27101713
 11
-253.87688618
 21
-2452.45599493
 31
106.45683147
 0
LINE
 5
36B
 100
AcDbEntity
 8
0
 100
AcDbLine
 62
   256
 10
-253.87688618
 20
-2452.45599493
 30
106.45683147
 11
-253.09561860
 21
-2454.34095360
 31
109.07520411
 0
LINE
 5
36C
 100
AcDbEntity
 8
0
 100
AcDbLine
 62
   256
 10
-253.09561860
 20
-2454.34095360
 30
109.07520411
 11
-252.52035617
 21
-2455.96239204
 31
114.49856193
 0
LINE
 5
36D
 100
AcDbEntity
 8
0
 100
AcDbLine
 62
   256
 10
-252.52035617
 20
-2455.96239204
 30
114.49856193
 11
-250.09488226
 21
-2460.88350071
 31
131.56672203
 0
LINE
 5
36E
 100
AcDbEntity
 8
0
 100
AcDbLine
 62
   256
 10
-250.09488226
 20
-2460.88350071
 30
131.56672203
 11
-249.28874766
 21
-2465.87878222
 31
135.22776243
 0
LINE
 5
36F
 100
AcDbEntity
 8
0
 100
AcDbLine
 62
   256
 10
-249.28874766
 20
-2465.87878222
 30
135.22776243
 11
-247.99001554
 21
-2469.95198741
 31
135.70508813
 0
LINE
 5
370
 100
AcDbEntity
 8
0
 100
AcDbLine
 62
   256
 10
-247.99001554
 20
-2469.95198741
 30
135.70508813
 11
-248.54382757
 21
-2474.41599209
 31
133.31734383
 0
LINE
 5
371
 100
AcDbEntity
 8
0
 100
AcDbLine
 62
   256
 10
-248.54382757
 20
-2474.41599209
 30
133.31734383
 11
-248.53647477
 21
-2478.25096173
 31
125.92240448
 0
LINE
 5
372
 100
AcDbEntity
 8
0
 100
AcDbLine
 62
   256
 10
-248.53647477
 20
-2478.25096173
 30
125.92240448
 11
-251.77362744
 21
-2481.33517840
 31
109.06794821
 0
LINE
 5
373
 100
AcDbEntity
 8
0
 100
AcDbLine
 62
   256
 10
-251.77362744
 20
-2481.33517840
 30
109.06794821
 11
-252.86917154
 21
-2481.90417137
 31
107.07743719
 0
LINE
 5
374
 100
AcDbEntity
 8
0
 100
AcDbLine
 62
   256
 10
-252.86917154
 20
-2481.90417137
 30
107.07743719
 11
-252.62085099
 21
-2483.80525587
 31
105.45106487
 0
LINE
 5
375
 100
AcDbEntity
 8
0
 100
AcDbLine
 62
   256
 10
-252.62085099
 20
-2483.80525587
 30
105.45106487
 11
-251.50612788
 21
-2490.26972808
 31
104.53502939
 0
LINE
 5
376
 100
AcDbEntity
 8
0
 100
AcDbLine
 62
   256
 10
-251.50612788
 20
-2490.26972808
 30
104.53502939
 11
-251.53226144
 21
-2497.49836001
 31
102.86563407
 0
LINE
 5
377
 100
AcDbEntity
 8
0
 100
AcDbLine
 62
   256
 10
-251.53226144
 20
-2497.49836001
 30
102.86563407
 11
-246.42521142
 21
-2497.15512177
 31
103.69835517
 0
LINE
 5
378
 100
AcDbEntity
 8
0
 100
AcDbLine
 62
   256
 10
-233.47876518
 20
-2468.36796691
 30
134.13519243
 11
-248.51954292
 21
-2468.61427768
 31
135.03206950
 0
POINT
 5
379
 100
AcDbEntity
 8
0
 100
AcDbPoint
 62
   256
 10
-262.46162269
 20
-2717.28345990
 30
72.77768115
 0
POINT
 5
37A
 100
AcDbEntity
 8
0
 100
AcDbPoint
 62
   256
 10
-238.13353943
 20
-2938.73237372
 30
55.43095858
 0
POINT
 5
37B
 100
AcDbEntity
 8
0
 100
AcDbPoint
 62
   256
 10
-240.68681777
 20
-3109.70468552
 30
20.80702004
 0
POINT
 5
37C
 100
AcDbEntity
 8
0
 100
AcDbPoint
 62
   256
 10
-235.13411618
 20
-3157.27086424
 30
21.21040557
 0
LINE
 5
37D
 100
AcDbEntity
 8
0
 100
AcDbLine
 62
   256
 10
-197.27250496
 20
-3109.48199024
 30
54.67605403
 11
-195.81198348
 21
-3116.26030265
 31
56.07424819
 0
LINE
 5
37E
 100
AcDbEntity
 8
0
 100
AcDbLine
 62
   256
 10
-195.81198348
 20
-3116.26030265
 30
56.07424819
 11
-194.42391438
 21
-3124.47693565
 31
55.48886824
 0
LINE
 5
37F
 100
AcDbEntity
 8
0
 100
AcDbLine
 62
   256
 10
-194.42391438
 20
-3124.47693565
 30
55.48886824
 11
-194.44538814
 21
-3125.90097408
 31
57.35736048
 0
LINE
 5
380
 100
AcDbEntity
 8
0
 100
AcDbLine
 62
   256
 10
-194.44538814
 20
-3125.90097408
 30
57.35736048
 11
-191.94377127
 21
-3128.18275168
 31
64.42608551
 0
LINE
 5
381
 100
AcDbEntity
 8
0
 100
AcDbLine
 62
   256
 10
-191.94377127
 20
-3128.18275168
 30
64.42608551
 11
-189.53762139
 21
-3136.88061411
 31
80.20492749
 0
LINE
 5
382
 100
AcDbEntity
 8
0
 100
AcDbLine
 62
   256
 10
-189.53762139
 20
-3136.88061411
 30
80.20492749
 11
-189.07043701
 21
-3143.26530862
 31
81.49135983
 0
LINE
 5
383
 100
AcDbEntity
 8
0
 100
AcDbLine
 62
   256
 10
-189.07043701
 20
-3143.26530862
 30
81.49135983
 11
-187.20301097
 21
-3151.07581488
 31
76.84476799
 0
LINE
 5
384
 100
AcDbEntity
 8
0
 100
AcDbLine
 62
   256
 10
-187.20301097
 20
-3151.07581488
 30
76.84476799
 11
-189.64660259
 21
-3151.91915368
 31
68.27585458
 0
LINE
 5
385
 100
AcDbEntity
 8
0
 100
AcDbLine
 62
   256
 10
-189.64660259
 20
-3151.91915368
 30
68.27585458
 11
-190.80306549
 21
-3152.20036919
 31
61.53741049
 0
LINE
 5
386
 100
AcDbEntity
 8
0
 100
AcDbLine
 62
   256
 10
-190.80306549
 20
-3152.20036919
 30
61.53741049
 11
-191.83907711
 21
-3152.47908141
 31
55.48294821
 0
LINE
 5
387
 100
AcDbEntity
 8
0
 100
AcDbLine
 62
   256
 10
-191.83907711
 20
-3152.47908141
 30
55.48294821
 11
-193.44568914
 21
-3153.31426300
 31
49.82877984
 0
LINE
 5
388
 100
AcDbEntity
 8
0
 100
AcDbLine
 62
   256
 10
-193.44568914
 20
-3153.31426300
 30
49.82877984
 11
-192.44511517
 21
-3159.45935586
 31
47.57969932
 0
LINE
 5
389
 100
AcDbEntity
 8
0
 100
AcDbLine
 62
   256
 10
-192.44511517
 20
-3159.45935586
 30
47.57969932
 11
-188.15553270
 21
-3167.25905131
 31
46.11183108
 0
LINE
 5
38A
 100
AcDbEntity
 8
0
 100
AcDbLine
 62
   256
 10
-188.15553270
 20
-3167.25905131
 30
46.11183108
 11
-191.86784151
 21
-3167.63068267
 31
41.57434884
 0
LINE
 5
38B
 100
AcDbEntity
 8
0
 100
AcDbLine
 62
   256
 10
-191.86784151
 20
-3167.63068267
 30
41.57434884
 11
-195.70652896
 21
-3147.53656598
 31
45.12546407
 0
LINE
 5
38C
 100
AcDbEntity
 8
0
 100
AcDbLine
 62
   256
 10
-195.70652896
 20
-3147.53656598
 30
45.12546407
 11
-198.48269897
 21
-3127.84170955
 31
48.34346923
 0
LINE
 5
38D
 100
AcDbEntity
 8
0
 100
AcDbLine
 62
   256
 10
-198.48269897
 20
-3127.84170955
 30
48.34346923
 11
-199.88063996
 21
-3113.66803319
 31
51.05449328
 0
LINE
 5
38E
 100
AcDbEntity
 8
0
 100
AcDbLine
 62
   256
 10
-175.12444215
 20
-3142.50256474
 30
81.38601912
 11
-188.62887357
 21
-3145.23929816
 31
81.64513405
 0
POINT
 5
38F
 100
AcDbEntity
 8
0
 100
AcDbPoint
 62
   256
 10
-205.68023997
 20
-3440.97849468
 30
13.05942209
 0
POINT
 5
390
 100
AcDbEntity
 8
0
 100
AcDbPoint
 62
   256
 10
-168.11190954
 20
-3711.18269022
 30
-1.55336261
 0
POINT
 5
391
 100
AcDbEntity
 8
0
 100
AcDbPoint
 62
   256
 10
-119.62922865
 20
-3942.56612490
 30
-22.50075989
 0
LINE
 5
392
 100
AcDbEntity
 8
0
 100
AcDbLine
 62
   256
 10
-276.17553595
 20
-2393.32905127
 30
99.06839473
 11
-275.99135279
 21
-2370.30609105
 31
110.75854060
 0
LINE
 5
393
 100
AcDbEntity
 8
0
 100
AcDbLine
 62
   256
 10
-275.99135279
 20
-2370.30609105
 30
110.75854060
 11
-272.87957789
 21
-2259.71617419
 31
163.03048821
 0
LINE
 5
394
 100
AcDbEntity
 8
0
 100
AcDbLine
 62
   256
 10
-272.87957789
 20
-2259.71617419
 30
163.03048821
 11
-266.98279536
 21
-2084.48554406
 31
235.78912544
 0
LINE
 5
395
 100
AcDbEntity
 8
0
 100
AcDbLine
 62
   256
 10
-266.98279536
 20
-2084.48554406
 30
235.78912544
 11
-261.59099971
 21
-1911.34211466
 31
298.81245406
 0
LINE
 5
396
 100
AcDbEntity
 8
0
 100
AcDbLine
 62
   256
 10
-261.59099971
 20
-1911.34211466
 30
298.81245406
 11
-260.14337262
 21
-1766.95600260
 31
347.42129266
 0
LINE
 5
397
 100
AcDbEntity
 8
0
 100
AcDbLine
 62
   256
 10
-260.14337262
 20
-1766.95600260
 30
347.42129266
 11
-259.02098072
 21
-1626.41262191
 31
384.45222579
 0
LINE
 5
398
 100
AcDbEntity
 8
0
 100
AcDbLine
 62
   256
 10
-259.02098072
 20
-1626.41262191
 30
384.45222579
 11
-258.25962041
 21
-1570.88242804
 31
398.66339732
 0
LINE
 5
399
 100
AcDbEntity
 8
0
 100
AcDbLine
 62
   256
 10
-258.25962041
 20
-1570.88242804
 30
398.66339732
 11
-257.98089847
 21
-1548.51699400
 31
405.28556262
 0
LINE
 5
39A
 100
AcDbEntity
 8
0
 100
AcDbLine
 62
   256
 10
-257.98089847
 20
-1548.51699400
 30
405.28556262
 11
-254.10647578
 21
-1541.51449523
 31
415.70952530
 0
LINE
 5
39B
 100
AcDbEntity
 8
0
 100
AcDbLine
 62
   256
 10
-254.10647578
 20
-1541.51449523
 30
415.70952530
 11
-246.40406004
 21
-1537.93654742
 31
418.43837953
 0
LINE
 5
39C
 100
AcDbEntity
 8
0
 100
AcDbLine
 62
   256
 10
-246.40406004
 20
-1537.93654742
 30
418.43837953
 11
-220.66365356
 21
-1534.31316748
 31
419.71589412
 0
LINE
 5
39D
 100
AcDbEntity
 8
0
 100
AcDbLine
 62
   256
 10
-220.66365356
 20
-1534.31316748
 30
419.71589412
 11
-119.62889888
 21
-1508.03230770
 31
426.90458993
 0
LINE
 5
39E
 100
AcDbEntity
 8
0
 100
AcDbLine
 62
   256
 10
-119.62889888
 20
-1508.03230770
 30
426.90458993
 11
-3.98747138
 21
-1476.66070624
 31
436.98918069
 0
LINE
 5
39F
 100
AcDbEntity
 8
0
 100
AcDbLine
 62
   256
 10
-3.98747138
 20
-1476.66070624
 30
436.98918069
 11
91.71406600
 21
-1448.89860875
 31
444.55408143
 0
LINE
 5
3A0
 100
AcDbEntity
 8
0
 100
AcDbLine
 62
   256
 10
91.71406600
 20
-1448.89860875
 30
444.55408143
 11
227.18748914
 21
-1409.73154431
 31
454.04554428
 0
LINE
 5
3A1
 100
AcDbEntity
 8
0
 100
AcDbLine
 62
   256
 10
227.18748914
 20
-1409.73154431
 30
454.04554428
 11
309.28012368
 21
-1382.83576193
 31
458.64319809
 0
LINE
 5
3A2
 100
AcDbEntity
 8
0
 100
AcDbLine
 62
   256
 10
309.28012368
 20
-1382.83576193
 30
458.64319809
 11
366.74382051
 21
-1365.77205549
 31
461.71987994
 0
LINE
 5
3A3
 100
AcDbEntity
 8
0
 100
AcDbLine
 62
   256
 10
366.74382051
 20
-1365.77205549
 30
461.71987994
 11
366.70833170
 21
-1359.71265414
 31
455.00948131
 0
LINE
 5
3A4
 100
AcDbEntity
 8
0
 100
AcDbLine
 62
   256
 10
366.70833170
 20
-1359.71265414
 30
455.00948131
 11
330.14710212
 21
-883.73812237
 31
134.03040769
 0
LINE
 5
3A5
 100
AcDbEntity
 8
0
 100
AcDbLine
 62
   256
 10
330.14710212
 20
-883.73812237
 30
134.03040769
 11
317.74334258
 21
-891.41643673
 31
132.14143995
 0
LINE
 5
3A6
 100
AcDbEntity
 8
0
 100
AcDbLine
 62
   256
 10
317.74334258
 20
-891.41643673
 30
132.14143995
 11
-262.31725086
 21
-1110.95844808
 31
106.32926166
 0
LINE
 5
3A7
 100
AcDbEntity
 8
0
 100
AcDbLine
 62
   256
 10
-262.31725086
 20
-1110.95844808
 30
106.32926166
 11
-262.54150258
 21
-1122.72246151
 31
118.31879495
 0
LINE
 5
3A8
 100
AcDbEntity
 8
0
 100
AcDbLine
 62
   256
 10
-262.54150258
 20
-1122.72246151
 30
118.31879495
 11
-220.81718262
 21
-1506.56546994
 31
400.46996183
 0
LINE
 5
3A9
 100
AcDbEntity
 8
0
 100
AcDbLine
 62
   256
 10
-220.81718262
 20
-1506.56546994
 30
400.46996183
 11
-190.58331872
 21
-1504.52479816
 31
404.07907057
 0
LINE
 5
3AA
 100
AcDbEntity
 8
0
 100
AcDbLine
 62
   256
 10
-190.58331872
 20
-1504.52479816
 30
404.07907057
 11
-86.46161463
 21
-1477.76082539
 31
412.80624497
 0
LINE
 5
3AB
 100
AcDbEntity
 8
0
 100
AcDbLine
 62
   256
 10
-86.46161463
 20
-1477.76082539
 30
412.80624497
 11
5.36581073
 21
-1452.00655572
 31
420.65743278
 0
LINE
 5
3AC
 100
AcDbEntity
 8
0
 100
AcDbLine
 62
   256
 10
5.36581073
 20
-1452.00655572
 30
420.65743278
 11
100.92967038
 21
-1425.30962771
 31
427.19307366
 0
LINE
 5
3AD
 100
AcDbEntity
 8
0
 100
AcDbLine
 62
   256
 10
100.92967038
 20
-1425.30962771
 30
427.19307366
 11
188.08731800
 21
-1399.40675919
 31
433.89971495
 0
LINE
 5
3AE
 100
AcDbEntity
 8
0
 100
AcDbLine
 62
   256
 10
188.08731800
 20
-1399.40675919
 30
433.89971495
 11
299.25119627
 21
-1364.74046057
 31
440.17022268
 0
LINE
 5
3AF
 100
AcDbEntity
 8
0
 100
AcDbLine
 62
   256
 10
299.25119627
 20
-1364.74046057
 30
440.17022268
 11
365.21881127
 21
-1343.01638103
 31
443.62842297
 0
LINE
 5
3B0
 100
AcDbEntity
 8
0
 100
AcDbLine
 62
   256
 10
-184.97938225
 20
-4329.06629651
 30
-238.77360639
 11
-170.79157685
 21
-4348.80333451
 31
-239.73034523
 0
LINE
 5
3B1
 100
AcDbEntity
 8
0
 100
AcDbLine
 62
   256
 10
-170.79157685
 20
-4348.80333451
 30
-239.73034523
 11
-138.80985086
 21
-4378.22465907
 31
-240.11186316
 0
LINE
 5
3B2
 100
AcDbEntity
 8
0
 100
AcDbLine
 62
   256
 10
-138.80985086
 20
-4378.22465907
 30
-240.11186316
 11
-87.71855965
 21
-4404.27507917
 31
-239.00190499
 0
LINE
 5
3B3
 100
AcDbEntity
 8
0
 100
AcDbLine
 62
   256
 10
-87.71855965
 20
-4404.27507917
 30
-239.00190499
 11
10.71002322
 21
-4426.25781508
 31
-239.68668751
 0
LINE
 5
3B4
 100
AcDbEntity
 8
0
 100
AcDbLine
 62
   256
 10
10.71002322
 20
-4426.25781508
 30
-239.68668751
 11
139.14965230
 21
-4436.32606293
 31
-241.39721274
 0
LINE
 5
3B5
 100
AcDbEntity
 8
0
 100
AcDbLine
 62
   256
 10
139.14965230
 20
-4436.32606293
 30
-241.39721274
 11
299.61560813
 21
-4434.96176692
 31
-241.80173788
 0
LINE
 5
3B6
 100
AcDbEntity
 8
0
 100
AcDbLine
 62
   256
 10
299.61560813
 20
-4434.96176692
 30
-241.80173788
 11
457.35229918
 21
-4433.31950571
 31
-242.13483893
 0
LINE
 5
3B7
 100
AcDbEntity
 8
0
 100
AcDbLine
 62
   256
 10
457.35229918
 20
-4433.31950571
 30
-242.13483893
 11
626.00706930
 21
-4427.21138273
 31
-240.53732992
 0
LINE
 5
3B8
 100
AcDbEntity
 8
0
 100
AcDbLine
 62
   256
 10
626.00706930
 20
-4427.21138273
 30
-240.53732992
 11
778.11412158
 21
-4419.55653985
 31
-242.68519314
 0
LINE
 5
3B9
 100
AcDbEntity
 8
0
 100
AcDbLine
 62
   256
 10
778.11412158
 20
-4419.55653985
 30
-242.68519314
 11
923.15458134
 21
-4407.17669807
 31
-244.13886102
 0
LINE
 5
3BA
 100
AcDbEntity
 8
0
 100
AcDbLine
 62
   256
 10
923.15458134
 20
-4407.17669807
 30
-244.13886102
 11
1047.09150027
 21
-4396.48338352
 31
-244.87224461
 0
LINE
 5
3BB
 100
AcDbEntity
 8
0
 100
AcDbLine
 62
   256
 10
1047.09150027
 20
-4396.48338352
 30
-244.87224461
 11
1137.92520570
 21
-4388.04918784
 31
-245.38099913
 0
LINE
 5
3BC
 100
AcDbEntity
 8
0
 100
AcDbLine
 62
   256
 10
1137.92520570
 20
-4388.04918784
 30
-245.38099913
 11
1238.64864085
 21
-4376.28254833
 31
-245.98314289
 0
LINE
 5
3BD
 100
AcDbEntity
 8
0
 100
AcDbLine
 62
   256
 10
1238.64864085
 20
-4376.28254833
 30
-245.98314289
 11
1318.16895198
 21
-4366.74269033
 31
-246.66352318
 0
LINE
 5
3BE
 100
AcDbEntity
 8
0
 100
AcDbLine
 62
   256
 10
1318.16895198
 20
-4366.74269033
 30
-246.66352318
 11
1495.05605826
 21
-4342.24540826
 31
-247.51816028
 0
LINE
 5
3BF
 100
AcDbEntity
 8
0
 100
AcDbLine
 62
   256
 10
1495.05605826
 20
-4342.24540826
 30
-247.51816028
 11
1591.91277113
 21
-4325.17905971
 31
-246.75717408
 0
LINE
 5
3C0
 100
AcDbEntity
 8
0
 100
AcDbLine
 62
   256
 10
1591.91277113
 20
-4325.17905971
 30
-246.75717408
 11
1665.63796774
 21
-4306.36417441
 31
-246.89203678
 0
LINE
 5
3C1
 100
AcDbEntity
 8
0
 100
AcDbLine
 62
   256
 10
1665.63796774
 20
-4306.36417441
 30
-246.89203678
 11
1713.60932978
 21
-4288.95518697
 31
-247.08056294
 0
LINE
 5
3C2
 100
AcDbEntity
 8
0
 100
AcDbLine
 62
   256
 10
1713.60932978
 20
-4288.95518697
 30
-247.08056294
 11
1759.44217562
 21
-4264.88530289
 31
-246.63231643
 0
LINE
 5
3C3
 100
AcDbEntity
 8
0
 100
AcDbLine
 62
   256
 10
1759.44217562
 20
-4264.88530289
 30
-246.63231643
 11
1796.28189790
 21
-4234.59818392
 31
-246.52889764
 0
LINE
 5
3C4
 100
AcDbEntity
 8
0
 100
AcDbLine
 62
   256
 10
1796.28189790
 20
-4234.59818392
 30
-246.52889764
 11
1821.96507917
 21
-4200.01049976
 31
-246.08194893
 0
LINE
 5
3C5
 100
AcDbEntity
 8
0
 100
AcDbLine
 62
   256
 10
1821.96507917
 20
-4200.01049976
 30
-246.08194893
 11
1831.20867472
 21
-4179.40692442
 31
-245.86779718
 0
LINE
 5
3C6
 100
AcDbEntity
 8
0
 100
AcDbLine
 62
   256
 10
1831.20867472
 20
-4179.40692442
 30
-245.86779718
 11
1837.39736470
 21
-4158.78296755
 31
-245.64706745
 0
LINE
 5
3C7
 100
AcDbEntity
 8
0
 100
AcDbLine
 62
   256
 10
1837.39736470
 20
-4158.78296755
 30
-245.64706745
 11
1840.60720734
 21
-4141.62506016
 31
-245.43148552
 0
LINE
 5
3C8
 100
AcDbEntity
 8
0
 100
AcDbLine
 62
   256
 10
1742.18700936
 20
-3804.46098279
 30
-50.52861986
 11
1736.74193103
 21
-3834.07812787
 31
-54.62525431
 0
LINE
 5
3C9
 100
AcDbEntity
 8
0
 100
AcDbLine
 62
   256
 10
1736.74193103
 20
-3834.07812787
 30
-54.62525431
 11
1724.55952358
 21
-3865.07433128
 31
-64.31256597
 0
LINE
 5
3CA
 100
AcDbEntity
 8
0
 100
AcDbLine
 62
   256
 10
1724.55952358
 20
-3865.07433128
 30
-64.31256597
 11
1699.86722983
 21
-3910.30439561
 31
-86.51903950
 0
LINE
 5
3CB
 100
AcDbEntity
 8
0
 100
AcDbLine
 62
   256
 10
1699.86722983
 20
-3910.30439561
 30
-86.51903950
 11
1673.27507675
 21
-3936.74618498
 31
-108.19080024
 0
LINE
 5
3CC
 100
AcDbEntity
 8
0
 100
AcDbLine
 62
   256
 10
1673.27507675
 20
-3936.74618498
 30
-108.19080024
 11
1644.64675090
 21
-3955.69835350
 31
-126.93891410
 0
LINE
 5
3CD
 100
AcDbEntity
 8
0
 100
AcDbLine
 62
   256
 10
1644.64675090
 20
-3955.69835350
 30
-126.93891410
 11
1616.60960153
 21
-3969.89293579
 31
-144.74206964
 0
LINE
 5
3CE
 100
AcDbEntity
 8
0
 100
AcDbLine
 62
   256
 10
1616.60960153
 20
-3969.89293579
 30
-144.74206964
 11
1596.37841525
 21
-3979.18380870
 31
-156.53326989
 0
LINE
 5
3CF
 100
AcDbEntity
 8
0
 100
AcDbLine
 62
   256
 10
1596.37841525
 20
-3979.18380870
 30
-156.53326989
 11
1576.83835077
 21
-3984.87108423
 31
-164.09236781
 0
LINE
 5
3D0
 100
AcDbEntity
 8
0
 100
AcDbLine
 62
   256
 10
1576.83835077
 20
-3984.87108423
 30
-164.09236781
 11
1563.14885189
 21
-3985.33921384
 31
-165.30693703
 0
LINE
 5
3D1
 100
AcDbEntity
 8
0
 100
AcDbLine
 62
   256
 10
1563.14885189
 20
-3985.33921384
 30
-165.30693703
 11
1542.74471206
 21
-3986.64536000
 31
-165.80481559
 0
LINE
 5
3D2
 100
AcDbEntity
 8
0
 100
AcDbLine
 62
   256
 10
1542.74471206
 20
-3986.64536000
 30
-165.80481559
 11
1229.66783098
 21
-4038.13347627
 31
-166.53170394
 0
LINE
 5
3D3
 100
AcDbEntity
 8
0
 100
AcDbLine
 62
   256
 10
1229.66783098
 20
-4038.13347627
 30
-166.53170394
 11
1189.02200961
 21
-4039.49536742
 31
-164.35758173
 0
LINE
 5
3D4
 100
AcDbEntity
 8
0
 100
AcDbLine
 62
   256
 10
1189.02200961
 20
-4039.49536742
 30
-164.35758173
 11
1121.51572015
 21
-4047.45314685
 31
-164.42643819
 0
LINE
 5
3D5
 100
AcDbEntity
 8
0
 100
AcDbLine
 62
   256
 10
1121.51572015
 20
-4047.45314685
 30
-164.42643819
 11
1044.02983138
 21
-4054.71619195
 31
-163.14738367
 0
LINE
 5
3D6
 100
AcDbEntity
 8
0
 100
AcDbLine
 62
   256
 10
1044.02983138
 20
-4054.71619195
 30
-163.14738367
 11
995.30507126
 21
-4060.45816028
 31
-163.91716810
 0
LINE
 5
3D7
 100
AcDbEntity
 8
0
 100
AcDbLine
 62
   256
 10
995.30507126
 20
-4060.45816028
 30
-163.91716810
 11
868.77165459
 21
-4070.70343190
 31
-162.76420796
 0
LINE
 5
3D8
 100
AcDbEntity
 8
0
 100
AcDbLine
 62
   256
 10
868.77165459
 20
-4070.70343190
 30
-162.76420796
 11
816.74099041
 21
-4075.53467916
 31
-163.16259047
 0
LINE
 5
3D9
 100
AcDbEntity
 8
0
 100
AcDbLine
 62
   256
 10
816.74099041
 20
-4075.53467916
 30
-163.16259047
 11
755.80089374
 21
-4081.64913720
 31
-164.85650039
 0
LINE
 5
3DA
 100
AcDbEntity
 8
0
 100
AcDbLine
 62
   256
 10
755.80089374
 20
-4081.64913720
 30
-164.85650039
 11
701.94801146
 21
-4084.48663871
 31
-164.14511058
 0
LINE
 5
3DB
 100
AcDbEntity
 8
0
 100
AcDbLine
 62
   256
 10
701.94801146
 20
-4084.48663871
 30
-164.14511058
 11
649.82003893
 21
-4086.29583349
 31
-163.21160186
 0
LINE
 5
3DC
 100
AcDbEntity
 8
0
 100
AcDbLine
 62
   256
 10
649.82003893
 20
-4086.29583349
 30
-163.21160186
 11
598.85559788
 21
-4089.52886805
 31
-163.75765706
 0
LINE
 5
3DD
 100
AcDbEntity
 8
0
 100
AcDbLine
 62
   256
 10
598.85559788
 20
-4089.52886805
 30
-163.75765706
 11
546.85321988
 21
-4091.23241395
 31
-163.72385292
 0
LINE
 5
3DE
 100
AcDbEntity
 8
0
 100
AcDbLine
 62
   256
 10
546.85321988
 20
-4091.23241395
 30
-163.72385292
 11
495.21096308
 21
-4093.69736000
 31
-164.24081955
 0
LINE
 5
3DF
 100
AcDbEntity
 8
0
 100
AcDbLine
 62
   256
 10
495.21096308
 20
-4093.69736000
 30
-164.24081955
 11
417.68610265
 21
-4095.48731015
 31
-164.61102916
 0
LINE
 5
3E0
 100
AcDbEntity
 8
0
 100
AcDbLine
 62
   256
 10
417.68610265
 20
-4095.48731015
 30
-164.61102916
 11
345.25478308
 21
-4095.60986696
 31
-164.66573686
 0
LINE
 5
3E1
 100
AcDbEntity
 8
0
 100
AcDbLine
 62
   256
 10
345.25478308
 20
-4095.60986696
 30
-164.66573686
 11
258.04024531
 21
-4092.61015275
 31
-163.42281096
 0
LINE
 5
3E2
 100
AcDbEntity
 8
0
 100
AcDbLine
 62
   256
 10
258.04024531
 20
-4092.61015275
 30
-163.42281096
 11
204.90603405
 21
-4093.11883903
 31
-164.18864593
 0
LINE
 5
3E3
 100
AcDbEntity
 8
0
 100
AcDbLine
 62
   256
 10
204.90603405
 20
-4093.11883903
 30
-164.18864593
 11
110.36938105
 21
-4090.30351151
 31
-162.41337853
 0
LINE
 5
3E4
 100
AcDbEntity
 8
0
 100
AcDbLine
 62
   256
 10
110.36938105
 20
-4090.30351151
 30
-162.41337853
 11
37.23151150
 21
-4092.39876906
 31
-160.06586608
 0
LINE
 5
3E5
 100
AcDbEntity
 8
0
 100
AcDbLine
 62
   256
 10
37.23151150
 20
-4092.39876906
 30
-160.06586608
 11
-5.79454627
 21
-4087.20174582
 31
-141.94586472
 0
LINE
 5
3E6
 100
AcDbEntity
 8
0
 100
AcDbLine
 62
   256
 10
-5.79454627
 20
-4087.20174582
 30
-141.94586472
 11
-32.58974430
 21
-4077.69120658
 31
-125.50410766
 0
LINE
 5
3E7
 100
AcDbEntity
 8
0
 100
AcDbLine
 62
   256
 10
-32.58974430
 20
-4077.69120658
 30
-125.50410766
 11
-66.47268507
 21
-4060.19014700
 31
-103.47935995
 0
LINE
 5
3E8
 100
AcDbEntity
 8
0
 100
AcDbLine
 62
   256
 10
-66.47268507
 20
-4060.19014700
 30
-103.47935995
 11
-101.72415581
 21
-4034.61497049
 31
-79.54854767
 0
LINE
 5
3E9
 100
AcDbEntity
 8
0
 100
AcDbLine
 62
   256
 10
-101.72415581
 20
-4034.61497049
 30
-79.54854767
 11
-125.16196400
 21
-4008.62233967
 31
-63.20144097
 0
LINE
 5
3EA
 100
AcDbEntity
 8
0
 100
AcDbLine
 62
   256
 10
-125.16196400
 20
-4008.62233967
 30
-63.20144097
 11
-135.17453678
 21
-3984.11633284
 31
-54.09233147
 0
LINE
 5
3EB
 100
AcDbEntity
 8
0
 100
AcDbLine
 62
   256
 10
-135.17453678
 20
-3984.11633284
 30
-54.09233147
 11
-147.45356888
 21
-3964.35427608
 31
-47.75231273
 0
LINE
 5
3EC
 100
AcDbEntity
 8
0
 100
AcDbLine
 62
   256
 10
-151.48288593
 20
-3947.33985550
 30
-44.56961458
 11
-142.68793699
 21
-3996.79716529
 31
-53.07482997
 0
LINE
 5
3ED
 100
AcDbEntity
 8
0
 100
AcDbLine
 62
   256
 10
-142.68793699
 20
-3996.79716529
 30
-53.07482997
 11
-137.12951787
 21
-4055.39996755
 31
-60.37427731
 0
LINE
 5
3EE
 100
AcDbEntity
 8
0
 100
AcDbLine
 62
   256
 10
-137.12951787
 20
-4055.39996755
 30
-60.37427731
 11
-127.90745269
 21
-4118.72334857
 31
-72.04103961
 0
LINE
 5
3EF
 100
AcDbEntity
 8
0
 100
AcDbLine
 62
   256
 10
-127.90745269
 20
-4118.72334857
 30
-72.04103961
 11
-117.24496239
 21
-4193.60678629
 31
-86.97689872
 0
LINE
 5
3F0
 100
AcDbEntity
 8
0
 100
AcDbLine
 62
   256
 10
-117.24496239
 20
-4193.60678629
 30
-86.97689872
 11
-105.72645764
 21
-4256.40875517
 31
-104.82743848
 0
LINE
 5
3F1
 100
AcDbEntity
 8
0
 100
AcDbLine
 62
   256
 10
-105.72645764
 20
-4256.40875517
 30
-104.82743848
 11
-93.84581381
 21
-4314.77563985
 31
-126.37781286
 0
LINE
 5
3F2
 100
AcDbEntity
 8
0
 100
AcDbLine
 62
   256
 10
-93.84581381
 20
-4314.77563985
 30
-126.37781286
 11
-83.41519811
 21
-4350.74220400
 31
-145.25708154
 0
LINE
 5
3F3
 100
AcDbEntity
 8
0
 100
AcDbLine
 62
   256
 10
-83.41519811
 20
-4350.74220400
 30
-145.25708154
 11
-74.98634735
 21
-4368.12681327
 31
-157.75136348
 0
LINE
 5
3F4
 100
AcDbEntity
 8
0
 100
AcDbLine
 62
   256
 10
-74.98634735
 20
-4368.12681327
 30
-157.75136348
 11
-55.65944027
 21
-4379.43552156
 31
-162.56560380
 0
LINE
 5
3F5
 100
AcDbEntity
 8
0
 100
AcDbLine
 62
   256
 10
-55.65944027
 20
-4379.43552156
 30
-162.56560380
 11
-4.17879325
 21
-4390.23036457
 31
-163.68769013
 0
LINE
 5
3F6
 100
AcDbEntity
 8
0
 100
AcDbLine
 62
   256
 10
-4.17879325
 20
-4390.23036457
 30
-163.68769013
 11
53.19340564
 21
-4397.31883846
 31
-164.95164766
 0
LINE
 5
3F7
 100
AcDbEntity
 8
0
 100
AcDbLine
 62
   256
 10
53.19340564
 20
-4397.31883846
 30
-164.95164766
 11
106.07745538
 21
-4401.41458555
 31
-166.60944810
 0
LINE
 5
3F8
 100
AcDbEntity
 8
0
 100
AcDbLine
 62
   256
 10
106.07745538
 20
-4401.41458555
 30
-166.60944810
 11
186.18720680
 21
-4402.73691141
 31
-167.45664886
 0
LINE
 5
3F9
 100
AcDbEntity
 8
0
 100
AcDbLine
 62
   256
 10
186.18720680
 20
-4402.73691141
 30
-167.45664886
 11
288.39059406
 21
-4403.36697479
 31
-168.29155111
 0
LINE
 5
3FA
 100
AcDbEntity
 8
0
 100
AcDbLine
 62
   256
 10
288.39059406
 20
-4403.36697479
 30
-168.29155111
 11
380.53782171
 21
-4400.74117746
 31
-168.45385931
 0
LINE
 5
3FB
 100
AcDbEntity
 8
0
 100
AcDbLine
 62
   256
 10
380.53782171
 20
-4400.74117746
 30
-168.45385931
 11
465.03961883
 21
-4399.13736250
 31
-169.10618227
 0
LINE
 5
3FC
 100
AcDbEntity
 8
0
 100
AcDbLine
 62
   256
 10
465.03961883
 20
-4399.13736250
 30
-169.10618227
 11
554.56196629
 21
-4396.00974328
 31
-169.86018329
 0
LINE
 5
3FD
 100
AcDbEntity
 8
0
 100
AcDbLine
 62
   256
 10
554.56196629
 20
-4396.00974328
 30
-169.86018329
 11
689.24984121
 21
-4390.18389153
 31
-171.34305421
 0
LINE
 5
3FE
 100
AcDbEntity
 8
0
 100
AcDbLine
 62
   256
 10
689.24984121
 20
-4390.18389153
 30
-171.34305421
 11
791.09473637
 21
-4383.73127963
 31
-171.53085771
 0
LINE
 5
3FF
 100
AcDbEntity
 8
0
 100
AcDbLine
 62
   256
 10
791.09473637
 20
-4383.73127963
 30
-171.53085771
 11
896.05909678
 21
-4376.11453531
 31
-172.31499314
 0
LINE
 5
400
 100
AcDbEntity
 8
0
 100
AcDbLine
 62
   256
 10
896.05909678
 20
-4376.11453531
 30
-172.31499314
 11
1014.20256303
 21
-4365.86955668
 31
-172.31141675
 0
LINE
 5
401
 100
AcDbEntity
 8
0
 100
AcDbLine
 62
   256
 10
1014.20256303
 20
-4365.86955668
 30
-172.31141675
 11
1121.01469616
 21
-4357.69826697
 31
-173.38580630
 0
LINE
 5
402
 100
AcDbEntity
 8
0
 100
AcDbLine
 62
   256
 10
1121.01469616
 20
-4357.69826697
 30
-173.38580630
 11
1185.52386229
 21
-4348.70093235
 31
-171.78139842
 0
LINE
 5
403
 100
AcDbEntity
 8
0
 100
AcDbLine
 62
   256
 10
1185.52386229
 20
-4348.70093235
 30
-171.78139842
 11
1232.83061837
 21
-4343.77860530
 31
-171.80819389
 0
LINE
 5
404
 100
AcDbEntity
 8
0
 100
AcDbLine
 62
   256
 10
1232.83061837
 20
-4343.77860530
 30
-171.80819389
 11
1270.58705497
 21
-4340.44246928
 31
-171.55042456
 0
LINE
 5
405
 100
AcDbEntity
 8
0
 100
AcDbLine
 62
   256
 10
1270.58705497
 20
-4340.44246928
 30
-171.55042456
 11
1297.82271169
 21
-4334.12271674
 31
-175.80432131
 0
LINE
 5
406
 100
AcDbEntity
 8
0
 100
AcDbLine
 62
   256
 10
1297.82271169
 20
-4334.12271674
 30
-175.80432131
 11
1304.20308123
 21
-4410.31213344
 31
-180.28745343
 0
LINE
 5
407
 100
AcDbEntity
 8
0
 100
AcDbLine
 62
   256
 10
1304.20308123
 20
-4410.31213344
 30
-180.28745343
 11
1333.22087805
 21
-4404.08887608
 31
-179.37490149
 0
LINE
 5
408
 100
AcDbEntity
 8
0
 100
AcDbLine
 62
   256
 10
1333.22087805
 20
-4404.08887608
 30
-179.37490149
 11
1338.51274745
 21
-4404.07626454
 31
-180.74606391
 0
LINE
 5
409
 100
AcDbEntity
 8
0
 100
AcDbLine
 62
   256
 10
1338.51274745
 20
-4404.07626454
 30
-180.74606391
 11
1335.04646621
 21
-4343.30166468
 31
-180.97354274
 0
LINE
 5
40A
 100
AcDbEntity
 8
0
 100
AcDbLine
 62
   256
 10
1335.04646621
 20
-4343.30166468
 30
-180.97354274
 11
1353.30082046
 21
-4335.02878621
 31
-180.40631492
 0
LINE
 5
40B
 100
AcDbEntity
 8
0
 100
AcDbLine
 62
   256
 10
1353.30082046
 20
-4335.02878621
 30
-180.40631492
 11
1350.13739162
 21
-4332.15553980
 31
-176.11498897
 0
LINE
 5
40C
 100
AcDbEntity
 8
0
 100
AcDbLine
 62
   256
 10
1350.13739162
 20
-4332.15553980
 30
-176.11498897
 11
1382.02590827
 21
-4327.71779416
 31
-175.31883009
 0
LINE
 5
40D
 100
AcDbEntity
 8
0
 100
AcDbLine
 62
   256
 10
1382.02590827
 20
-4327.71779416
 30
-175.31883009
 11
1448.67338403
 21
-4318.91432459
 31
-175.43135989
 0
LINE
 5
40E
 100
AcDbEntity
 8
0
 100
AcDbLine
 62
   256
 10
1448.67338403
 20
-4318.91432459
 30
-175.43135989
 11
1490.35215259
 21
-4311.93651975
 31
-174.77740088
 0
LINE
 5
40F
 100
AcDbEntity
 8
0
 100
AcDbLine
 62
   256
 10
1490.35215259
 20
-4311.93651975
 30
-174.77740088
 11
1525.44024908
 21
-4305.61031643
 31
-174.38509208
 0
LINE
 5
410
 100
AcDbEntity
 8
0
 100
AcDbLine
 62
   256
 10
1525.44024908
 20
-4305.61031643
 30
-174.38509208
 11
1551.34184255
 21
-4300.31826238
 31
-176.89164658
 0
LINE
 5
411
 100
AcDbEntity
 8
0
 100
AcDbLine
 62
   256
 10
1551.34184255
 20
-4300.31826238
 30
-176.89164658
 11
1556.47419405
 21
-4378.35758191
 31
-179.10244002
 0
LINE
 5
412
 100
AcDbEntity
 8
0
 100
AcDbLine
 62
   256
 10
1556.47419405
 20
-4378.35758191
 30
-179.10244002
 11
1595.78601326
 21
-4373.12243638
 31
-186.24741196
 0
LINE
 5
413
 100
AcDbEntity
 8
0
 100
AcDbLine
 62
   256
 10
1595.78601326
 20
-4373.12243638
 30
-186.24741196
 11
1589.14976103
 21
-4293.10516910
 31
-175.10964387
 0
LINE
 5
414
 100
AcDbEntity
 8
0
 100
AcDbLine
 62
   256
 10
1589.14976103
 20
-4293.10516910
 30
-175.10964387
 11
1606.48166023
 21
-4291.64380606
 31
-174.68343790
 0
LINE
 5
415
 100
AcDbEntity
 8
0
 100
AcDbLine
 62
   256
 10
1606.48166023
 20
-4291.64380606
 30
-174.68343790
 11
1651.01054601
 21
-4279.19307685
 31
-173.70284536
 0
LINE
 5
416
 100
AcDbEntity
 8
0
 100
AcDbLine
 62
   256
 10
1651.01054601
 20
-4279.19307685
 30
-173.70284536
 11
1692.10609687
 21
-4264.60727960
 31
-172.67855169
 0
LINE
 5
417
 100
AcDbEntity
 8
0
 100
AcDbLine
 62
   256
 10
1692.10609687
 20
-4264.60727960
 30
-172.67855169
 11
1721.03085579
 21
-4252.10646794
 31
-171.31349438
 0
LINE
 5
418
 100
AcDbEntity
 8
0
 100
AcDbLine
 62
   256
 10
1721.03085579
 20
-4252.10646794
 30
-171.31349438
 11
1724.09684959
 21
-4244.48020840
 31
-166.53049555
 0
LINE
 5
419
 100
AcDbEntity
 8
0
 100
AcDbLine
 62
   256
 10
1724.09684959
 20
-4244.48020840
 30
-166.53049555
 11
1730.82549133
 21
-4199.07203955
 31
-138.52962575
 0
LINE
 5
41A
 100
AcDbEntity
 8
0
 100
AcDbLine
 62
   256
 10
1730.82549133
 20
-4199.07203955
 30
-138.52962575
 11
1734.23623758
 21
-4142.03111952
 31
-116.89833917
 0
LINE
 5
41B
 100
AcDbEntity
 8
0
 100
AcDbLine
 62
   256
 10
1734.23623758
 20
-4142.03111952
 30
-116.89833917
 11
1734.96990819
 21
-4078.65812096
 31
-100.05087831
 0
LINE
 5
41C
 100
AcDbEntity
 8
0
 100
AcDbLine
 62
   256
 10
1734.96990819
 20
-4078.65812096
 30
-100.05087831
 11
1740.86949564
 21
-4000.55771984
 31
-81.67008888
 0
LINE
 5
41D
 100
AcDbEntity
 8
0
 100
AcDbLine
 62
   256
 10
1740.86949564
 20
-4000.55771984
 30
-81.67008888
 11
1740.95457723
 21
-3942.07192841
 31
-70.61448231
 0
LINE
 5
41E
 100
AcDbEntity
 8
0
 100
AcDbLine
 62
   256
 10
1740.95457723
 20
-3942.07192841
 30
-70.61448231
 11
1745.22042397
 21
-3875.96837826
 31
-60.38837990
 0
LINE
 5
41F
 100
AcDbEntity
 8
0
 100
AcDbLine
 62
   256
 10
1745.22042397
 20
-3875.96837826
 30
-60.38837990
 11
1744.75223162
 21
-3849.06307516
 31
-57.74458733
 0
LINE
 5
420
 100
AcDbEntity
 8
0
 100
AcDbLine
 62
   256
 10
1744.75223162
 20
-3849.06307516
 30
-57.74458733
 11
1739.33006560
 21
-3827.10895797
 31
-54.08864830
 0
LINE
 5
421
 100
AcDbEntity
 8
0
 100
AcDbLine
 62
   256
 10
1739.33006560
 20
-3827.10895797
 30
-54.08864830
 11
1725.05824009
 21
-3799.79765762
 31
-27.95378836
 0
POINT
 5
422
 100
AcDbEntity
 8
0
 100
AcDbPoint
 62
   256
 10
1678.56955124
 20
-3871.16742922
 30
-28.58287835
 0
POINT
 5
423
 100
AcDbEntity
 8
0
 100
AcDbPoint
 62
   256
 10
1551.88501668
 20
-3913.10728047
 30
-29.68359187
 0
POINT
 5
424
 100
AcDbEntity
 8
0
 100
AcDbPoint
 62
   256
 10
1234.67635942
 20
-3969.88292048
 30
-32.42864288
 0
POINT
 5
425
 100
AcDbEntity
 8
0
 100
AcDbPoint
 62
   256
 10
992.20014619
 20
-3994.86118009
 30
-31.43834762
 0
POINT
 5
426
 100
AcDbEntity
 8
0
 100
AcDbPoint
 62
   256
 10
598.25937996
 20
-4023.37723267
 30
-29.64160624
 0
POINT
 5
427
 100
AcDbEntity
 8
0
 100
AcDbPoint
 62
   256
 10
413.83341058
 20
-4029.32602427
 30
-28.93367402
 0
POINT
 5
428
 100
AcDbEntity
 8
0
 100
AcDbPoint
 62
   256
 10
195.87718767
 20
-4029.37752850
 30
-27.44168878
 0
POINT
 5
429
 100
AcDbEntity
 8
0
 100
AcDbPoint
 62
   256
 10
51.92270892
 20
-4019.18982621
 30
-25.07817176
 0
POINT
 5
42A
 100
AcDbEntity
 8
0
 100
AcDbPoint
 62
   256
 10
-77.37046220
 20
-3998.13178269
 30
-24.38358638
 0
POINT
 5
42B
 100
AcDbEntity
 8
0
 100
AcDbPoint
 62
   256
 10
-126.74167501
 20
-3942.96751177
 30
-18.92155497
 0
LINE
 5
42C
 100
AcDbEntity
 8
0
 100
AcDbLine
 62
   256
 10
-49.87818840
 20
-3811.22933050
 30
-0.90091335
 11
-45.43308997
 21
-3830.92700507
 31
-3.93880624
 0
LINE
 5
42D
 100
AcDbEntity
 8
0
 100
AcDbLine
 62
   256
 10
-45.43308997
 20
-3830.92700507
 30
-3.93880624
 11
-41.18361059
 21
-3844.33237740
 31
-3.67104939
 0
LINE
 5
42E
 100
AcDbEntity
 8
0
 100
AcDbLine
 62
   256
 10
-41.18361059
 20
-3844.33237740
 30
-3.67104939
 11
-33.60120815
 21
-3851.76997686
 31
-1.47430448
 0
LINE
 5
42F
 100
AcDbEntity
 8
0
 100
AcDbLine
 62
   256
 10
-33.60120815
 20
-3851.76997686
 30
-1.47430448
 11
-23.48149018
 21
-3856.60002584
 31
1.36916299
 0
LINE
 5
430
 100
AcDbEntity
 8
0
 100
AcDbLine
 62
   256
 10
-23.48149018
 20
-3856.60002584
 30
1.36916299
 11
3.65783649
 21
-3855.87441745
 31
8.25416827
 0
LINE
 5
431
 100
AcDbEntity
 8
0
 100
AcDbLine
 62
   256
 10
3.65783649
 20
-3855.87441745
 30
8.25416827
 11
27.18724704
 21
-3855.88873108
 31
12.89340139
 0
LINE
 5
432
 100
AcDbEntity
 8
0
 100
AcDbLine
 62
   256
 10
27.18724704
 20
-3855.88873108
 30
12.89340139
 11
60.52249144
 21
-3855.86956733
 31
19.11210069
 0
LINE
 5
433
 100
AcDbEntity
 8
0
 100
AcDbLine
 62
   256
 10
60.52249144
 20
-3855.86956733
 30
19.11210069
 11
101.84566197
 21
-3855.09679575
 31
24.14277671
 0
LINE
 5
434
 100
AcDbEntity
 8
0
 100
AcDbLine
 62
   256
 10
101.84566197
 20
-3855.09679575
 30
24.14277671
 11
155.58835415
 21
-3853.34828202
 31
27.57572627
 0
LINE
 5
435
 100
AcDbEntity
 8
0
 100
AcDbLine
 62
   256
 10
155.58835415
 20
-3853.34828202
 30
27.57572627
 11
197.54471671
 21
-3851.22331221
 31
27.34461612
 0
LINE
 5
436
 100
AcDbEntity
 8
0
 100
AcDbLine
 62
   256
 10
197.54471671
 20
-3851.22331221
 30
27.34461612
 11
236.64827318
 21
-3848.19228741
 31
25.41645019
 0
LINE
 5
437
 100
AcDbEntity
 8
0
 100
AcDbLine
 62
   256
 10
236.64827318
 20
-3848.19228741
 30
25.41645019
 11
293.75925860
 21
-3842.63458104
 31
18.29891618
 0
LINE
 5
438
 100
AcDbEntity
 8
0
 100
AcDbLine
 62
   256
 10
293.75925860
 20
-3842.63458104
 30
18.29891618
 11
327.57155170
 21
-3837.47863368
 31
12.32412534
 0
LINE
 5
439
 100
AcDbEntity
 8
0
 100
AcDbLine
 62
   256
 10
327.57155170
 20
-3837.47863368
 30
12.32412534
 11
343.09349458
 21
-3834.44699739
 31
8.73869093
 0
LINE
 5
43A
 100
AcDbEntity
 8
0
 100
AcDbLine
 62
   256
 10
343.09349458
 20
-3834.44699739
 30
8.73869093
 11
388.63086103
 21
-3828.41527992
 31
-2.08062281
 0
LINE
 5
43B
 100
AcDbEntity
 8
0
 100
AcDbLine
 62
   256
 10
388.63086103
 20
-3828.41527992
 30
-2.08062281
 11
407.05217665
 21
-3822.00495365
 31
-3.57493961
 0
LINE
 5
43C
 100
AcDbEntity
 8
0
 100
AcDbLine
 62
   256
 10
407.05217665
 20
-3822.00495365
 30
-3.57493961
 11
433.72082501
 21
-3819.15790423
 31
-3.96383438
 0
LINE
 5
43D
 100
AcDbEntity
 8
0
 100
AcDbLine
 62
   256
 10
433.72082501
 20
-3819.15790423
 30
-3.96383438
 11
487.28494894
 21
-3816.11818689
 31
-4.64747730
 0
LINE
 5
43E
 100
AcDbEntity
 8
0
 100
AcDbLine
 62
   256
 10
487.28494894
 20
-3816.11818689
 30
-4.64747730
 11
541.80650666
 21
-3812.74980750
 31
-5.17819780
 0
LINE
 5
43F
 100
AcDbEntity
 8
0
 100
AcDbLine
 62
   256
 10
541.80650666
 20
-3812.74980750
 30
-5.17819780
 11
599.58177478
 21
-3809.51039445
 31
-5.64747118
 0
LINE
 5
440
 100
AcDbEntity
 8
0
 100
AcDbLine
 62
   256
 10
599.58177478
 20
-3809.51039445
 30
-5.64747118
 11
691.73950432
 21
-3803.12506014
 31
-6.45424968
 0
LINE
 5
441
 100
AcDbEntity
 8
0
 100
AcDbLine
 62
   256
 10
691.73950432
 20
-3803.12506014
 30
-6.45424968
 11
755.36570442
 21
-3798.30454434
 31
-6.77946058
 0
LINE
 5
442
 100
AcDbEntity
 8
0
 100
AcDbLine
 62
   256
 10
755.36570442
 20
-3798.30454434
 30
-6.77946058
 11
836.29492668
 21
-3794.54936724
 31
-6.95028572
 0
LINE
 5
443
 100
AcDbEntity
 8
0
 100
AcDbLine
 62
   256
 10
836.29492668
 20
-3794.54936724
 30
-6.95028572
 11
900.57169163
 21
-3785.06098684
 31
-9.13312640
 0
LINE
 5
444
 100
AcDbEntity
 8
0
 100
AcDbLine
 62
   256
 10
900.57169163
 20
-3785.06098684
 30
-9.13312640
 11
958.22157809
 21
-3783.66967106
 31
-7.41809446
 0
LINE
 5
445
 100
AcDbEntity
 8
0
 100
AcDbLine
 62
   256
 10
958.22157809
 20
-3783.66967106
 30
-7.41809446
 11
1022.39004092
 21
-3778.87808831
 31
-7.14486657
 0
LINE
 5
446
 100
AcDbEntity
 8
0
 100
AcDbLine
 62
   256
 10
1022.39004092
 20
-3778.87808831
 30
-7.14486657
 11
1089.38770587
 21
-3773.96056695
 31
-7.24223667
 0
LINE
 5
447
 100
AcDbEntity
 8
0
 100
AcDbLine
 62
   256
 10
1089.38770587
 20
-3773.96056695
 30
-7.24223667
 11
1134.03607196
 21
-3769.38476475
 31
-7.45276127
 0
LINE
 5
448
 100
AcDbEntity
 8
0
 100
AcDbLine
 62
   256
 10
1134.03607196
 20
-3769.38476475
 30
-7.45276127
 11
1174.34976885
 21
-3765.45490011
 31
-7.63044795
 0
LINE
 5
449
 100
AcDbEntity
 8
0
 100
AcDbLine
 62
   256
 10
1174.34976885
 20
-3765.45490011
 30
-7.63044795
 11
1180.56688995
 21
-3765.65414028
 31
-8.19364008
 0
LINE
 5
44A
 100
AcDbEntity
 8
0
 100
AcDbLine
 62
   256
 10
1180.56688995
 20
-3765.65414028
 30
-8.19364008
 11
1188.24940374
 21
-3767.85213967
 31
-6.66214836
 0
LINE
 5
44B
 100
AcDbEntity
 8
0
 100
AcDbLine
 62
   256
 10
1188.24940374
 20
-3767.85213967
 30
-6.66214836
 11
1210.21658339
 21
-3767.52464116
 31
-2.74674436
 0
LINE
 5
44C
 100
AcDbEntity
 8
0
 100
AcDbLine
 62
   256
 10
1210.21658339
 20
-3767.52464116
 30
-2.74674436
 11
1231.15274148
 21
-3767.60036814
 31
2.75206088
 0
LINE
 5
44D
 100
AcDbEntity
 8
0
 100
AcDbLine
 62
   256
 10
1231.15274148
 20
-3767.60036814
 30
2.75206088
 11
1246.22369983
 21
-3769.23825267
 31
7.21710806
 0
LINE
 5
44E
 100
AcDbEntity
 8
0
 100
AcDbLine
 62
   256
 10
1246.22369983
 20
-3769.23825267
 30
7.21710806
 11
1290.81834370
 21
-3770.41394241
 31
15.24177977
 0
LINE
 5
44F
 100
AcDbEntity
 8
0
 100
AcDbLine
 62
   256
 10
1290.81834370
 20
-3770.41394241
 30
15.24177977
 11
1332.81432523
 21
-3770.60180504
 31
20.25299869
 0
LINE
 5
450
 100
AcDbEntity
 8
0
 100
AcDbLine
 62
   256
 10
1332.81432523
 20
-3770.60180504
 30
20.25299869
 11
1391.71058009
 21
-3767.55286413
 31
22.84675965
 0
LINE
 5
451
 100
AcDbEntity
 8
0
 100
AcDbLine
 62
   256
 10
1391.71058009
 20
-3767.55286413
 30
22.84675965
 11
1475.87907361
 21
-3761.58603361
 31
19.23709321
 0
LINE
 5
452
 100
AcDbEntity
 8
0
 100
AcDbLine
 62
   256
 10
1475.87907361
 20
-3761.58603361
 30
19.23709321
 11
1534.18807629
 21
-3754.83791197
 31
11.05458131
 0
LINE
 5
453
 100
AcDbEntity
 8
0
 100
AcDbLine
 62
   256
 10
1534.18807629
 20
-3754.83791197
 30
11.05458131
 11
1576.78786847
 21
-3748.41832249
 31
1.81759336
 0
LINE
 5
454
 100
AcDbEntity
 8
0
 100
AcDbLine
 62
   256
 10
1576.78786847
 20
-3748.41832249
 30
1.81759336
 11
1604.16976133
 21
-3742.37476654
 31
-5.61647926
 0
LINE
 5
455
 100
AcDbEntity
 8
0
 100
AcDbLine
 62
   256
 10
1604.16976133
 20
-3742.37476654
 30
-5.61647926
 11
1617.34813653
 21
-3735.09983040
 31
-9.60877399
 0
LINE
 5
456
 100
AcDbEntity
 8
0
 100
AcDbLine
 62
   256
 10
1617.34813653
 20
-3735.09983040
 30
-9.60877399
 11
1619.32797922
 21
-3728.82722165
 31
-10.38949559
 0
LINE
 5
457
 100
AcDbEntity
 8
0
 100
AcDbLine
 62
   256
 10
1619.32797922
 20
-3728.82722165
 30
-10.38949559
 11
1620.57133618
 21
-3716.49910091
 31
-9.68412607
 0
LINE
 5
458
 100
AcDbEntity
 8
0
 100
AcDbLine
 62
   256
 10
1620.57133618
 20
-3716.49910091
 30
-9.68412607
 11
1619.29346265
 21
-3692.75947594
 31
-7.53540496
 0
LINE
 5
459
 100
AcDbEntity
 8
0
 100
AcDbLine
 62
   256
 10
1619.29346265
 20
-3692.75947594
 30
-7.53540496
 11
1617.50682145
 21
-3671.81626906
 31
-7.04074849
 0
LINE
 5
45A
 100
AcDbEntity
 8
0
 100
AcDbLine
 62
   256
 10
1617.50682145
 20
-3671.81626906
 30
-7.04074849
 11
1626.49616938
 21
-3663.03924641
 31
-6.53487994
 0
LINE
 5
45B
 100
AcDbEntity
 8
0
 100
AcDbLine
 62
   256
 10
1626.49616938
 20
-3663.03924641
 30
-6.53487994
 11
1638.24870598
 21
-3652.43868800
 31
-4.69868995
 0
LINE
 5
45C
 100
AcDbEntity
 8
0
 100
AcDbLine
 62
   256
 10
1638.24870598
 20
-3652.43868800
 30
-4.69868995
 11
1646.61147529
 21
-3639.20264542
 31
-3.24170794
 0
LINE
 5
45D
 100
AcDbEntity
 8
0
 100
AcDbLine
 62
   256
 10
1646.61147529
 20
-3639.20264542
 30
-3.24170794
 11
1653.78538220
 21
-3619.94889784
 31
-1.43338118
 0
LINE
 5
45E
 100
AcDbEntity
 8
0
 100
AcDbLine
 62
   256
 10
1653.78538220
 20
-3619.94889784
 30
-1.43338118
 11
1656.51442499
 21
-3591.36101765
 31
0.60269821
 0
LINE
 5
45F
 100
AcDbEntity
 8
0
 100
AcDbLine
 62
   256
 10
1656.51442499
 20
-3591.36101765
 30
0.60269821
 11
1655.22365557
 21
-3625.55106470
 31
-0.79327349
 0
LINE
 5
460
 100
AcDbEntity
 8
0
 100
AcDbLine
 62
   256
 10
1655.22365557
 20
-3625.55106470
 30
-0.79327349
 11
1659.08721713
 21
-3576.87643013
 31
3.93643641
 0
LINE
 5
461
 100
AcDbEntity
 8
0
 100
AcDbLine
 62
   256
 10
1659.08721713
 20
-3576.87643013
 30
3.93643641
 11
1662.26826574
 21
-3491.67280696
 31
11.33128694
 0
LINE
 5
462
 100
AcDbEntity
 8
0
 100
AcDbLine
 62
   256
 10
1662.26826574
 20
-3491.67280696
 30
11.33128694
 11
1662.49901779
 21
-3376.64385262
 31
19.03408573
 0
LINE
 5
463
 100
AcDbEntity
 8
0
 100
AcDbLine
 62
   256
 10
1662.49901779
 20
-3376.64385262
 30
19.03408573
 11
1659.90230597
 21
-3273.21040332
 31
24.79018231
 0
LINE
 5
464
 100
AcDbEntity
 8
0
 100
AcDbLine
 62
   256
 10
1659.90230597
 20
-3273.21040332
 30
24.79018231
 11
1657.47100875
 21
-3184.38506714
 31
28.23665161
 0
LINE
 5
465
 100
AcDbEntity
 8
0
 100
AcDbLine
 62
   256
 10
1657.47100875
 20
-3184.38506714
 30
28.23665161
 11
1653.96053498
 21
-3106.67093794
 31
30.97927736
 0
LINE
 5
466
 100
AcDbEntity
 8
0
 100
AcDbLine
 62
   256
 10
1653.96053498
 20
-3106.67093794
 30
30.97927736
 11
1652.53553071
 21
-3063.02677938
 31
32.64220872
 0
LINE
 5
467
 100
AcDbEntity
 8
0
 100
AcDbLine
 62
   256
 10
1652.53553071
 20
-3063.02677938
 30
32.64220872
 11
1649.79986583
 21
-3025.49540887
 31
38.66760366
 0
LINE
 5
468
 100
AcDbEntity
 8
0
 100
AcDbLine
 62
   256
 10
1649.79986583
 20
-3025.49540887
 30
38.66760366
 11
1648.00926016
 21
-2996.71030276
 31
43.36873934
 0
LINE
 5
469
 100
AcDbEntity
 8
0
 100
AcDbLine
 62
   256
 10
1648.00926016
 20
-2996.71030276
 30
43.36873934
 11
1647.13659202
 21
-2944.97645565
 31
53.11680326
 0
LINE
 5
46A
 100
AcDbEntity
 8
0
 100
AcDbLine
 62
   256
 10
1647.13659202
 20
-2944.97645565
 30
53.11680326
 11
1644.04575755
 21
-2863.45586856
 31
62.69219747
 0
LINE
 5
46B
 100
AcDbEntity
 8
0
 100
AcDbLine
 62
   256
 10
1644.04575755
 20
-2863.45586856
 30
62.69219747
 11
1640.71421327
 21
-2765.78789490
 31
72.73151529
 0
LINE
 5
46C
 100
AcDbEntity
 8
0
 100
AcDbLine
 62
   256
 10
1640.71421327
 20
-2765.78789490
 30
72.73151529
 11
1635.79981698
 21
-2665.09158765
 31
80.76707488
 0
LINE
 5
46D
 100
AcDbEntity
 8
0
 100
AcDbLine
 62
   256
 10
1635.79981698
 20
-2665.09158765
 30
80.76707488
 11
1629.34210670
 21
-2555.82472073
 31
86.41258999
 0
LINE
 5
46E
 100
AcDbEntity
 8
0
 100
AcDbLine
 62
   256
 10
1629.34210670
 20
-2555.82472073
 30
86.41258999
 11
1623.68322148
 21
-2462.95302369
 31
91.92526488
 0
LINE
 5
46F
 100
AcDbEntity
 8
0
 100
AcDbLine
 62
   256
 10
1623.68322148
 20
-2462.95302369
 30
91.92526488
 11
1620.06846517
 21
-2385.12357277
 31
94.40524645
 0
LINE
 5
470
 100
AcDbEntity
 8
0
 100
AcDbLine
 62
   256
 10
1620.06846517
 20
-2385.12357277
 30
94.40524645
 11
1615.91710600
 21
-2315.91507783
 31
97.40498568
 0
LINE
 5
471
 100
AcDbEntity
 8
0
 100
AcDbLine
 62
   256
 10
1615.91710600
 20
-2315.91507783
 30
97.40498568
 11
1612.46749351
 21
-2266.02734307
 31
96.56936686
 0
LINE
 5
472
 100
AcDbEntity
 8
0
 100
AcDbLine
 62
   256
 10
1612.46749351
 20
-2266.02734307
 30
96.56936686
 11
1609.70015632
 21
-2217.54208242
 31
94.04527967
 0
LINE
 5
473
 100
AcDbEntity
 8
0
 100
AcDbLine
 62
   256
 10
1609.70015632
 20
-2217.54208242
 30
94.04527967
 11
1604.84439705
 21
-2165.69230855
 31
91.48156744
 0
LINE
 5
474
 100
AcDbEntity
 8
0
 100
AcDbLine
 62
   256
 10
1604.84439705
 20
-2165.69230855
 30
91.48156744
 11
1599.88464682
 21
-2111.52947757
 31
87.66911657
 0
LINE
 5
475
 100
AcDbEntity
 8
0
 100
AcDbLine
 62
   256
 10
1651.40377057
 20
-2365.32041387
 30
95.98811241
 11
1650.67310864
 21
-2370.41357181
 31
96.55208229
 0
LINE
 5
476
 100
AcDbEntity
 8
0
 100
AcDbLine
 62
   256
 10
1650.67310864
 20
-2370.41357181
 30
96.55208229
 11
1645.30687838
 21
-2371.75300644
 31
96.14372380
 0
LINE
 5
477
 100
AcDbEntity
 8
0
 100
AcDbLine
 62
   256
 10
1645.30687838
 20
-2371.75300644
 30
96.14372380
 11
1638.90423289
 21
-2372.47389289
 31
95.63778155
 0
LINE
 5
478
 100
AcDbEntity
 8
0
 100
AcDbLine
 62
   256
 10
1638.90423289
 20
-2372.47389289
 30
95.63778155
 11
1630.74258294
 21
-2372.73140018
 31
96.07377109
 0
LINE
 5
479
 100
AcDbEntity
 8
0
 100
AcDbLine
 62
   256
 10
1630.74258294
 20
-2372.73140018
 30
96.07377109
 11
1628.16619601
 21
-2369.71327914
 31
96.49539888
 0
LINE
 5
47A
 100
AcDbEntity
 8
0
 100
AcDbLine
 62
   256
 10
1628.16619601
 20
-2369.71327914
 30
96.49539888
 11
1623.46163733
 21
-2315.45282887
 31
98.10313258
 0
LINE
 5
47B
 100
AcDbEntity
 8
0
 100
AcDbLine
 62
   256
 10
1623.46163733
 20
-2315.45282887
 30
98.10313258
 11
1625.44162491
 21
-2313.87663006
 31
102.25358166
 0
LINE
 5
47C
 100
AcDbEntity
 8
0
 100
AcDbLine
 62
   256
 10
1625.44162491
 20
-2313.87663006
 30
102.25358166
 11
1626.23027763
 21
-2319.05243284
 31
103.96565136
 0
LINE
 5
47D
 100
AcDbEntity
 8
0
 100
AcDbLine
 62
   256
 10
1626.23027763
 20
-2319.05243284
 30
103.96565136
 11
1625.01163131
 21
-2325.84622606
 31
103.59157747
 0
LINE
 5
47E
 100
AcDbEntity
 8
0
 100
AcDbLine
 62
   256
 10
1625.01163131
 20
-2325.84622606
 30
103.59157747
 11
1626.18217222
 21
-2328.11807584
 31
105.14244788
 0
LINE
 5
47F
 100
AcDbEntity
 8
0
 100
AcDbLine
 62
   256
 10
1626.18217222
 20
-2328.11807584
 30
105.14244788
 11
1625.56480371
 21
-2331.05845796
 31
112.58033815
 0
LINE
 5
480
 100
AcDbEntity
 8
0
 100
AcDbLine
 62
   256
 10
1625.56480371
 20
-2331.05845796
 30
112.58033815
 11
1624.34983062
 21
-2333.77459342
 31
121.08565022
 0
LINE
 5
481
 100
AcDbEntity
 8
0
 100
AcDbLine
 62
   256
 10
1624.34983062
 20
-2333.77459342
 30
121.08565022
 11
1624.07407544
 21
-2337.44168269
 31
128.76228681
 0
LINE
 5
482
 100
AcDbEntity
 8
0
 100
AcDbLine
 62
   256
 10
1624.07407544
 20
-2337.44168269
 30
128.76228681
 11
1626.64624180
 21
-2345.98211292
 31
131.19927786
 0
LINE
 5
483
 100
AcDbEntity
 8
0
 100
AcDbLine
 62
   256
 10
1626.64624180
 20
-2345.98211292
 30
131.19927786
 11
1624.98977748
 21
-2349.12467818
 31
127.30576572
 0
LINE
 5
484
 100
AcDbEntity
 8
0
 100
AcDbLine
 62
   256
 10
1624.98977748
 20
-2349.12467818
 30
127.30576572
 11
1626.71184531
 21
-2353.52643899
 31
118.93655655
 0
LINE
 5
485
 100
AcDbEntity
 8
0
 100
AcDbLine
 62
   256
 10
1626.71184531
 20
-2353.52643899
 30
118.93655655
 11
1628.43190186
 21
-2355.17254359
 31
110.50860376
 0
LINE
 5
486
 100
AcDbEntity
 8
0
 100
AcDbLine
 62
   256
 10
1628.43190186
 20
-2355.17254359
 30
110.50860376
 11
1628.19712736
 21
-2356.02238595
 31
104.60049153
 0
LINE
 5
487
 100
AcDbEntity
 8
0
 100
AcDbLine
 62
   256
 10
1628.19712736
 20
-2356.02238595
 30
104.60049153
 11
1627.57556106
 21
-2356.17807512
 31
102.91782413
 0
LINE
 5
488
 100
AcDbEntity
 8
0
 100
AcDbLine
 62
   256
 10
1627.57556106
 20
-2356.17807512
 30
102.91782413
 11
1628.40975929
 21
-2359.14021206
 31
102.50139285
 0
LINE
 5
489
 100
AcDbEntity
 8
0
 100
AcDbLine
 62
   256
 10
1628.40975929
 20
-2359.14021206
 30
102.50139285
 11
1631.02749725
 21
-2372.13876180
 31
100.28239735
 0
LINE
 5
48A
 100
AcDbEntity
 8
0
 100
AcDbLine
 62
   256
 10
1631.02749725
 20
-2372.13876180
 30
100.28239735
 11
1629.88333765
 21
-2372.68449071
 31
96.75242999
 0
LINE
 5
48B
 100
AcDbEntity
 8
0
 100
AcDbLine
 62
   256
 10
1627.39116449
 20
-2343.79476532
 30
131.43459975
 11
1640.54560759
 21
-2342.53635761
 31
132.43970317
 0
LINE
 5
48C
 100
AcDbEntity
 8
0
 100
AcDbLine
 62
   256
 10
1710.93664981
 20
-3798.68839255
 30
-21.44360294
 11
1703.45636543
 21
-3818.39562385
 31
-22.35799328
 0
LINE
 5
48D
 100
AcDbEntity
 8
0
 100
AcDbLine
 62
   256
 10
1703.45636543
 20
-3818.39562385
 30
-22.35799328
 11
1695.93929348
 21
-3835.82192285
 31
-23.89963457
 0
LINE
 5
48E
 100
AcDbEntity
 8
0
 100
AcDbLine
 62
   256
 10
1695.93929348
 20
-3835.82192285
 30
-23.89963457
 11
1684.57703009
 21
-3852.98576076
 31
-25.34479394
 0
LINE
 5
48F
 100
AcDbEntity
 8
0
 100
AcDbLine
 62
   256
 10
1684.57703009
 20
-3852.98576076
 30
-25.34479394
 11
1671.90750595
 21
-3863.06802598
 31
-25.78829228
 0
LINE
 5
490
 100
AcDbEntity
 8
0
 100
AcDbLine
 62
   256
 10
1671.90750595
 20
-3863.06802598
 30
-25.78829228
 11
1660.71954200
 21
-3875.32331790
 31
-27.65728226
 0
LINE
 5
491
 100
AcDbEntity
 8
0
 100
AcDbLine
 62
   256
 10
1660.71954200
 20
-3875.32331790
 30
-27.65728226
 11
1640.25119772
 21
-3883.97994363
 31
-27.34509964
 0
LINE
 5
492
 100
AcDbEntity
 8
0
 100
AcDbLine
 62
   256
 10
1640.25119772
 20
-3883.97994363
 30
-27.34509964
 11
1616.48437448
 21
-3892.27477108
 31
-28.11252736
 0
LINE
 5
493
 100
AcDbEntity
 8
0
 100
AcDbLine
 62
   256
 10
1616.48437448
 20
-3892.27477108
 30
-28.11252736
 11
1585.67491671
 21
-3898.48017777
 31
-28.06290406
 0
LINE
 5
494
 100
AcDbEntity
 8
0
 100
AcDbLine
 62
   256
 10
1585.67491671
 20
-3898.48017777
 30
-28.06290406
 11
1559.26917340
 21
-3904.98194387
 31
-27.72744153
 0
LINE
 5
495
 100
AcDbEntity
 8
0
 100
AcDbLine
 62
   256
 10
1559.26917340
 20
-3904.98194387
 30
-27.72744153
 11
1535.43716541
 21
-3912.40211397
 31
-29.05064936
 0
LINE
 5
496
 100
AcDbEntity
 8
0
 100
AcDbLine
 62
   256
 10
1535.43716541
 20
-3912.40211397
 30
-29.05064936
 11
1500.81870860
 21
-3922.41778317
 31
-30.24935700
 0
LINE
 5
497
 100
AcDbEntity
 8
0
 100
AcDbLine
 62
   256
 10
1500.81870860
 20
-3922.41778317
 30
-30.24935700
 11
1451.62574701
 21
-3932.54037004
 31
-29.42629567
 0
LINE
 5
498
 100
AcDbEntity
 8
0
 100
AcDbLine
 62
   256
 10
1451.62574701
 20
-3932.54037004
 30
-29.42629567
 11
1398.98646267
 21
-3939.26563652
 31
-29.03757633
 0
LINE
 5
499
 100
AcDbEntity
 8
0
 100
AcDbLine
 62
   256
 10
1398.98646267
 20
-3939.26563652
 30
-29.03757633
 11
1345.27714334
 21
-3948.01663121
 31
-29.77483288
 0
LINE
 5
49A
 100
AcDbEntity
 8
0
 100
AcDbLine
 62
   256
 10
1345.27714334
 20
-3948.01663121
 30
-29.77483288
 11
1286.25762487
 21
-3958.41439330
 31
-30.26630628
 0
LINE
 5
49B
 100
AcDbEntity
 8
0
 100
AcDbLine
 62
   256
 10
1286.25762487
 20
-3958.41439330
 30
-30.26630628
 11
1244.96098179
 21
-3963.18929077
 31
-29.86790127
 0
LINE
 5
49C
 100
AcDbEntity
 8
0
 100
AcDbLine
 62
   256
 10
1244.96098179
 20
-3963.18929077
 30
-29.86790127
 11
1219.27201186
 21
-3967.21423055
 31
-30.80798328
 0
LINE
 5
49D
 100
AcDbEntity
 8
0
 100
AcDbLine
 62
   256
 10
1219.27201186
 20
-3967.21423055
 30
-30.80798328
 11
1176.46949834
 21
-3970.77602360
 31
-29.64409202
 0
LINE
 5
49E
 100
AcDbEntity
 8
0
 100
AcDbLine
 62
   256
 10
1176.46949834
 20
-3970.77602360
 30
-29.64409202
 11
1107.32848545
 21
-3977.56679698
 31
-27.95186888
 0
LINE
 5
49F
 100
AcDbEntity
 8
0
 100
AcDbLine
 62
   256
 10
1107.32848545
 20
-3977.56679698
 30
-27.95186888
 11
1022.35325091
 21
-3984.86228606
 31
-28.14013432
 0
LINE
 5
4A0
 100
AcDbEntity
 8
0
 100
AcDbLine
 62
   256
 10
1022.35325091
 20
-3984.86228606
 30
-28.14013432
 11
979.66498778
 21
-3989.51481153
 31
-27.58285916
 0
LINE
 5
4A1
 100
AcDbEntity
 8
0
 100
AcDbLine
 62
   256
 10
979.66498778
 20
-3989.51481153
 30
-27.58285916
 11
923.95420920
 21
-3995.72135441
 31
-28.15958306
 0
LINE
 5
4A2
 100
AcDbEntity
 8
0
 100
AcDbLine
 62
   256
 10
923.95420920
 20
-3995.72135441
 30
-28.15958306
 11
847.26570707
 21
-4002.70735633
 31
-28.16712724
 0
LINE
 5
4A3
 100
AcDbEntity
 8
0
 100
AcDbLine
 62
   256
 10
847.26570707
 20
-4002.70735633
 30
-28.16712724
 11
781.13649165
 21
-4005.32623773
 31
-26.81612365
 0
LINE
 5
4A4
 100
AcDbEntity
 8
0
 100
AcDbLine
 62
   256
 10
781.13649165
 20
-4005.32623773
 30
-26.81612365
 11
723.05965720
 21
-4006.99487868
 31
-25.81022154
 0
LINE
 5
4A5
 100
AcDbEntity
 8
0
 100
AcDbLine
 62
   256
 10
723.05965720
 20
-4006.99487868
 30
-25.81022154
 11
659.05977563
 21
-4010.68988523
 31
-25.39778594
 0
LINE
 5
4A6
 100
AcDbEntity
 8
0
 100
AcDbLine
 62
   256
 10
659.05977563
 20
-4010.68988523
 30
-25.39778594
 11
609.66088406
 21
-4013.98717021
 31
-26.07222561
 0
LINE
 5
4A7
 100
AcDbEntity
 8
0
 100
AcDbLine
 62
   256
 10
609.66088406
 20
-4013.98717021
 30
-26.07222561
 11
567.08320970
 21
-4020.66153690
 31
-27.76813822
 0
LINE
 5
4A8
 100
AcDbEntity
 8
0
 100
AcDbLine
 62
   256
 10
567.08320970
 20
-4020.66153690
 30
-27.76813822
 11
514.17233702
 21
-4022.09151840
 31
-27.33494248
 0
LINE
 5
4A9
 100
AcDbEntity
 8
0
 100
AcDbLine
 62
   256
 10
514.17233702
 20
-4022.09151840
 30
-27.33494248
 11
459.37446097
 21
-4024.79273724
 31
-27.54274856
 0
LINE
 5
4AA
 100
AcDbEntity
 8
0
 100
AcDbLine
 62
   256
 10
459.37446097
 20
-4024.79273724
 30
-27.54274856
 11
425.72796809
 21
-4026.50633092
 31
-28.13071449
 0
LINE
 5
4AB
 100
AcDbEntity
 8
0
 100
AcDbLine
 62
   256
 10
425.72796809
 20
-4026.50633092
 30
-28.13071449
 11
393.25450353
 21
-4024.39137454
 31
-26.14996825
 0
LINE
 5
4AC
 100
AcDbEntity
 8
0
 100
AcDbLine
 62
   256
 10
393.25450353
 20
-4024.39137454
 30
-26.14996825
 11
353.91242839
 21
-4027.11197263
 31
-27.07076337
 0
LINE
 5
4AD
 100
AcDbEntity
 8
0
 100
AcDbLine
 62
   256
 10
353.91242839
 20
-4027.11197263
 30
-27.07076337
 11
315.87015760
 21
-4026.62999975
 31
-26.14746041
 0
LINE
 5
4AE
 100
AcDbEntity
 8
0
 100
AcDbLine
 62
   256
 10
315.87015760
 20
-4026.62999975
 30
-26.14746041
 11
265.98893077
 21
-4024.96651804
 31
-25.14372667
 0
LINE
 5
4AF
 100
AcDbEntity
 8
0
 100
AcDbLine
 62
   256
 10
265.98893077
 20
-4024.96651804
 30
-25.14372667
 11
218.65705367
 21
-4025.70974589
 31
-25.96750995
 0
LINE
 5
4B0
 100
AcDbEntity
 8
0
 100
AcDbLine
 62
   256
 10
218.65705367
 20
-4025.70974589
 30
-25.96750995
 11
206.45742808
 21
-4027.13354485
 31
-26.64065971
 0
LINE
 5
4B1
 100
AcDbEntity
 8
0
 100
AcDbLine
 62
   256
 10
206.45742808
 20
-4027.13354485
 30
-26.64065971
 11
175.43964360
 21
-4026.31199532
 31
-26.04537711
 0
LINE
 5
4B2
 100
AcDbEntity
 8
0
 100
AcDbLine
 62
   256
 10
175.43964360
 20
-4026.31199532
 30
-26.04537711
 11
143.97711325
 21
-4024.45201263
 31
-25.64899086
 0
LINE
 5
4B3
 100
AcDbEntity
 8
0
 100
AcDbLine
 62
   256
 10
143.97711325
 20
-4024.45201263
 30
-25.64899086
 11
110.39146865
 21
-4023.39569695
 31
-26.17129339
 0
LINE
 5
4B4
 100
AcDbEntity
 8
0
 100
AcDbLine
 62
   256
 10
110.39146865
 20
-4023.39569695
 30
-26.17129339
 11
68.66240577
 21
-4021.14829649
 31
-26.01419191
 0
LINE
 5
4B5
 100
AcDbEntity
 8
0
 100
AcDbLine
 62
   256
 10
68.66240577
 20
-4021.14829649
 30
-26.01419191
 11
32.86096291
 21
-4017.19042221
 31
-25.27087637
 0
LINE
 5
4B6
 100
AcDbEntity
 8
0
 100
AcDbLine
 62
   256
 10
32.86096291
 20
-4017.19042221
 30
-25.27087637
 11
8.31268639
 21
-4015.78469615
 31
-25.72637594
 0
LINE
 5
4B7
 100
AcDbEntity
 8
0
 100
AcDbLine
 62
   256
 10
8.31268639
 20
-4015.78469615
 30
-25.72637594
 11
-22.85369375
 21
-4011.33045314
 31
-24.51559288
 0
LINE
 5
4B8
 100
AcDbEntity
 8
0
 100
AcDbLine
 62
   256
 10
-22.85369375
 20
-4011.33045314
 30
-24.51559288
 11
-46.36868766
 21
-4007.04318341
 31
-24.14348332
 0
LINE
 5
4B9
 100
AcDbEntity
 8
0
 100
AcDbLine
 62
   256
 10
-46.36868766
 20
-4007.04318341
 30
-24.14348332
 11
-64.71239231
 21
-3999.74425356
 31
-22.32421529
 0
LINE
 5
4BA
 100
AcDbEntity
 8
0
 100
AcDbLine
 62
   256
 10
-64.71239231
 20
-3999.74425356
 30
-22.32421529
 11
-71.55684510
 21
-3995.36393582
 31
-21.36474499
 0
LINE
 5
4BB
 100
AcDbEntity
 8
0
 100
AcDbLine
 62
   256
 10
-71.55684510
 20
-3995.36393582
 30
-21.36474499
 11
-83.49306198
 21
-3988.32224941
 31
-20.67292264
 0
LINE
 5
4BC
 100
AcDbEntity
 8
0
 100
AcDbLine
 62
   256
 10
-83.49306198
 20
-3988.32224941
 30
-20.67292264
 11
-99.85534930
 21
-3970.40545387
 31
-18.26049816
 0
LINE
 5
4BD
 100
AcDbEntity
 8
0
 100
AcDbLine
 62
   256
 10
-99.85534930
 20
-3970.40545387
 30
-18.26049816
 11
-113.89901864
 21
-3949.59864863
 31
-16.10246186
 0
LINE
 5
4BE
 100
AcDbEntity
 8
0
 100
AcDbLine
 62
   256
 10
-113.89901864
 20
-3949.59864863
 30
-16.10246186
 11
-122.45429547
 21
-3927.26960563
 31
-13.29304758
 0
LINE
 5
4BF
 100
AcDbEntity
 8
0
 100
AcDbLine
 62
   256
 10
-122.45429547
 20
-3927.26960563
 30
-13.29304758
 11
-134.42787987
 21
-3892.76297811
 31
-10.07293993
 0
LINE
 5
4C0
 100
AcDbEntity
 8
0
 100
AcDbLine
 62
   256
 10
-134.42787987
 20
-3892.76297811
 30
-10.07293993
 11
-142.04404179
 21
-3872.20705989
 31
-9.05472229
 0
LINE
 5
4C1
 100
AcDbEntity
 8
0
 100
AcDbLine
 62
   256
 10
-142.04404179
 20
-3872.20705989
 30
-9.05472229
 11
-146.78530820
 21
-3852.77723827
 31
-7.12860170
 0
LINE
 5
4C2
 100
AcDbEntity
 8
0
 100
AcDbLine
 62
   256
 10
-146.78530820
 20
-3852.77723827
 30
-7.12860170
 11
-147.36871301
 21
-3832.22419308
 31
-3.37255895
 0
LINE
 5
4C3
 100
AcDbEntity
 8
0
 100
AcDbLine
 62
   256
 10
397.09037478
 20
841.24189459
 30
-88.63748487
 11
417.10189703
 21
850.22451361
 31
-88.29483257
 0
LINE
 5
4C4
 100
AcDbEntity
 8
0
 100
AcDbLine
 62
   256
 10
417.10189703
 20
850.22451361
 30
-88.29483257
 11
451.92549269
 21
860.01825157
 31
-88.95840227
 0
LINE
 5
4C5
 100
AcDbEntity
 8
0
 100
AcDbLine
 62
   256
 10
451.92549269
 20
860.01825157
 30
-88.95840227
 11
499.30363954
 21
857.34380705
 31
-90.31030454
 0
LINE
 5
4C6
 100
AcDbEntity
 8
0
 100
AcDbLine
 62
   256
 10
499.30363954
 20
857.34380705
 30
-90.31030454
 11
578.50263525
 21
823.93008664
 31
-90.52449706
 0
LINE
 5
4C7
 100
AcDbEntity
 8
0
 100
AcDbLine
 62
   256
 10
578.50263525
 20
823.93008664
 30
-90.52449706
 11
646.24726984
 21
779.02705503
 31
-90.12601608
 0
LINE
 5
4C8
 100
AcDbEntity
 8
0
 100
AcDbLine
 62
   256
 10
646.24726984
 20
779.02705503
 30
-90.12601608
 11
732.01870823
 21
709.89075912
 31
-89.43186869
 0
LINE
 5
4C9
 100
AcDbEntity
 8
0
 100
AcDbLine
 62
   256
 10
732.01870823
 20
709.89075912
 30
-89.43186869
 11
817.14899566
 21
629.27595580
 31
-88.46230943
 0
LINE
 5
4CA
 100
AcDbEntity
 8
0
 100
AcDbLine
 62
   256
 10
817.14899566
 20
629.27595580
 30
-88.46230943
 11
919.56053880
 21
518.18787939
 31
-88.16901831
 0
LINE
 5
4CB
 100
AcDbEntity
 8
0
 100
AcDbLine
 62
   256
 10
919.56053880
 20
518.18787939
 30
-88.16901831
 11
1034.74923280
 21
370.40249366
 31
-85.96893971
 0
LINE
 5
4CC
 100
AcDbEntity
 8
0
 100
AcDbLine
 62
   256
 10
1034.74923280
 20
370.40249366
 30
-85.96893971
 11
1140.74638785
 21
210.73593005
 31
-82.84615039
 0
LINE
 5
4CD
 100
AcDbEntity
 8
0
 100
AcDbLine
 62
   256
 10
1140.74638785
 20
210.73593005
 30
-82.84615039
 11
1241.71258483
 21
35.56625947
 31
-79.78272254
 0
LINE
 5
4CE
 100
AcDbEntity
 8
0
 100
AcDbLine
 62
   256
 10
1241.71258483
 20
35.56625947
 30
-79.78272254
 11
1315.92975904
 21
-112.42593426
 31
-75.57381592
 0
LINE
 5
4CF
 100
AcDbEntity
 8
0
 100
AcDbLine
 62
   256
 10
1315.92975904
 20
-112.42593426
 30
-75.57381592
 11
1371.03135642
 21
-237.66880851
 31
-74.09219420
 0
LINE
 5
4D0
 100
AcDbEntity
 8
0
 100
AcDbLine
 62
   256
 10
1371.03135642
 20
-237.66880851
 30
-74.09219420
 11
1414.94040306
 21
-348.75111713
 31
-72.19368902
 0
LINE
 5
4D1
 100
AcDbEntity
 8
0
 100
AcDbLine
 62
   256
 10
1414.94040306
 20
-348.75111713
 30
-72.19368902
 11
1465.28205842
 21
-492.70203663
 31
-70.04131356
 0
LINE
 5
4D2
 100
AcDbEntity
 8
0
 100
AcDbLine
 62
   256
 10
1465.28205842
 20
-492.70203663
 30
-70.04131356
 11
1500.15209527
 21
-606.16323889
 31
-68.46113663
 0
LINE
 5
4D3
 100
AcDbEntity
 8
0
 100
AcDbLine
 62
   256
 10
1500.15209527
 20
-606.16323889
 30
-68.46113663
 11
1524.77751506
 21
-696.59989885
 31
-67.24149815
 0
LINE
 5
4D4
 100
AcDbEntity
 8
0
 100
AcDbLine
 62
   256
 10
1524.77751506
 20
-696.59989885
 30
-67.24149815
 11
1556.47347683
 21
-837.74578567
 31
-67.82831649
 0
LINE
 5
4D5
 100
AcDbEntity
 8
0
 100
AcDbLine
 62
   256
 10
1556.47347683
 20
-837.74578567
 30
-67.82831649
 11
1580.51855449
 21
-974.77427833
 31
-68.45953290
 0
LINE
 5
4D6
 100
AcDbEntity
 8
0
 100
AcDbLine
 62
   256
 10
1580.51855449
 20
-974.77427833
 30
-68.45953290
 11
1597.89648441
 21
-1085.47920471
 31
-69.71998169
 0
LINE
 5
4D7
 100
AcDbEntity
 8
0
 100
AcDbLine
 62
   256
 10
1597.89648441
 20
-1085.47920471
 30
-69.71998169
 11
1614.31984946
 21
-1206.62051922
 31
-70.97770964
 0
LINE
 5
4D8
 100
AcDbEntity
 8
0
 100
AcDbLine
 62
   256
 10
1614.31984946
 20
-1206.62051922
 30
-70.97770964
 11
1629.49980784
 21
-1325.15408460
 31
-72.57727649
 0
LINE
 5
4D9
 100
AcDbEntity
 8
0
 100
AcDbLine
 62
   256
 10
1629.49980784
 20
-1325.15408460
 30
-72.57727649
 11
1643.92467211
 21
-1445.95069707
 31
-74.35053780
 0
LINE
 5
4DA
 100
AcDbEntity
 8
0
 100
AcDbLine
 62
   256
 10
1643.92467211
 20
-1445.95069707
 30
-74.35053780
 11
1658.34713445
 21
-1577.42490160
 31
-77.79205041
 0
LINE
 5
4DB
 100
AcDbEntity
 8
0
 100
AcDbLine
 62
   256
 10
1658.34713445
 20
-1577.42490160
 30
-77.79205041
 11
1674.38209270
 21
-1728.59299940
 31
-81.67083331
 0
LINE
 5
4DC
 100
AcDbEntity
 8
0
 100
AcDbLine
 62
   256
 10
1674.38209270
 20
-1728.59299940
 30
-81.67083331
 11
1691.84245746
 21
-1909.32732694
 31
-87.97511097
 0
LINE
 5
4DD
 100
AcDbEntity
 8
0
 100
AcDbLine
 62
   256
 10
1691.84245746
 20
-1909.32732694
 30
-87.97511097
 11
1704.19811328
 21
-2049.86959556
 31
-93.30868387
 0
LINE
 5
4DE
 100
AcDbEntity
 8
0
 100
AcDbLine
 62
   256
 10
1704.19811328
 20
-2049.86959556
 30
-93.30868387
 11
1724.34130437
 21
-2298.40307626
 31
-103.48845267
 0
LINE
 5
4DF
 100
AcDbEntity
 8
0
 100
AcDbLine
 62
   256
 10
1724.34130437
 20
-2298.40307626
 30
-103.48845267
 11
1735.41612238
 21
-2442.66642409
 31
-111.18724033
 0
LINE
 5
4E0
 100
AcDbEntity
 8
0
 100
AcDbLine
 62
   256
 10
1735.41612238
 20
-2442.66642409
 30
-111.18724033
 11
1753.96311181
 21
-2708.51886386
 31
-126.82386330
 0
LINE
 5
4E1
 100
AcDbEntity
 8
0
 100
AcDbLine
 62
   256
 10
1753.96311181
 20
-2708.51886386
 30
-126.82386330
 11
1761.53395817
 21
-2803.36663861
 31
-133.51943133
 0
LINE
 5
4E2
 100
AcDbEntity
 8
0
 100
AcDbLine
 62
   256
 10
1761.53395817
 20
-2803.36663861
 30
-133.51943133
 11
1770.96924353
 21
-2939.88726059
 31
-142.66399542
 0
LINE
 5
4E3
 100
AcDbEntity
 8
0
 100
AcDbLine
 62
   256
 10
1770.96924353
 20
-2939.88726059
 30
-142.66399542
 11
1779.15378489
 21
-3047.41642442
 31
-149.58327194
 0
LINE
 5
4E4
 100
AcDbEntity
 8
0
 100
AcDbLine
 62
   256
 10
1779.15378489
 20
-3047.41642442
 30
-149.58327194
 11
1783.26617485
 21
-3117.18054468
 31
-154.37774976
 0
LINE
 5
4E5
 100
AcDbEntity
 8
0
 100
AcDbLine
 62
   256
 10
1783.26617485
 20
-3117.18054468
 30
-154.37774976
 11
1792.73546169
 21
-3255.63841592
 31
-165.90215603
 0
LINE
 5
4E6
 100
AcDbEntity
 8
0
 100
AcDbLine
 62
   256
 10
1792.73546169
 20
-3255.63841592
 30
-165.90215603
 11
1797.98049445
 21
-3348.12951575
 31
-174.63537195
 0
LINE
 5
4E7
 100
AcDbEntity
 8
0
 100
AcDbLine
 62
   256
 10
1797.98049445
 20
-3348.12951575
 30
-174.63537195
 11
1804.79273771
 21
-3447.05000295
 31
-182.95410653
 0
LINE
 5
4E8
 100
AcDbEntity
 8
0
 100
AcDbLine
 62
   256
 10
1804.79273771
 20
-3447.05000295
 30
-182.95410653
 11
1815.18459288
 21
-3586.11856119
 31
-196.06730861
 0
LINE
 5
4E9
 100
AcDbEntity
 8
0
 100
AcDbLine
 62
   256
 10
1815.18459288
 20
-3586.11856119
 30
-196.06730861
 11
1821.51410135
 21
-3684.54211018
 31
-207.50563306
 0
LINE
 5
4EA
 100
AcDbEntity
 8
0
 100
AcDbLine
 62
   256
 10
1821.51410135
 20
-3684.54211018
 30
-207.50563306
 11
1827.70046176
 21
-3768.22793943
 31
-214.84340942
 0
LINE
 5
4EB
 100
AcDbEntity
 8
0
 100
AcDbLine
 62
   256
 10
1827.70046176
 20
-3768.22793943
 30
-214.84340942
 11
1832.36919130
 21
-3848.35862134
 31
-222.80163834
 0
LINE
 5
4EC
 100
AcDbEntity
 8
0
 100
AcDbLine
 62
   256
 10
1832.36919130
 20
-3848.35862134
 30
-222.80163834
 11
1842.16284134
 21
-3994.53486203
 31
-235.86866548
 0
LINE
 5
4ED
 100
AcDbEntity
 8
0
 100
AcDbLine
 62
   256
 10
1842.16284134
 20
-3994.53486203
 30
-235.86866548
 11
1842.67367810
 21
-4052.36290749
 31
-239.75389626
 0
LINE
 5
4EE
 100
AcDbEntity
 8
0
 100
AcDbLine
 62
   256
 10
1842.67367810
 20
-4052.36290749
 30
-239.75389626
 11
1839.66155999
 21
-4123.46613375
 31
-243.14841515
 0
LINE
 5
4EF
 100
AcDbEntity
 8
0
 100
AcDbLine
 62
   256
 10
1839.66155999
 20
-4123.46613375
 30
-243.14841515
 11
1839.04653554
 21
-4155.46302250
 31
-245.12742950
 0
LINE
 5
4F0
 100
AcDbEntity
 8
0
 100
AcDbLine
 62
   256
 10
498.29244809
 20
629.22694552
 30
-28.53051562
 11
525.61759797
 21
626.24085969
 31
-28.36411690
 0
LINE
 5
4F1
 100
AcDbEntity
 8
0
 100
AcDbLine
 62
   256
 10
525.61759797
 20
626.24085969
 30
-28.36411690
 11
547.19625540
 21
619.73326219
 31
-26.92202000
 0
LINE
 5
4F2
 100
AcDbEntity
 8
0
 100
AcDbLine
 62
   256
 10
547.19625540
 20
619.73326219
 30
-26.92202000
 11
576.80617733
 21
614.26280237
 31
-28.02331490
 0
LINE
 5
4F3
 100
AcDbEntity
 8
0
 100
AcDbLine
 62
   256
 10
576.80617733
 20
614.26280237
 30
-28.02331490
 11
593.71664641
 21
606.87804433
 31
-26.86824658
 0
LINE
 5
4F4
 100
AcDbEntity
 8
0
 100
AcDbLine
 62
   256
 10
593.71664641
 20
606.87804433
 30
-26.86824658
 11
625.85401268
 21
593.64905166
 31
-26.61907205
 0
LINE
 5
4F5
 100
AcDbEntity
 8
0
 100
AcDbLine
 62
   256
 10
625.85401268
 20
593.64905166
 30
-26.61907205
 11
650.79972508
 21
580.84490001
 31
-26.23659036
 0
LINE
 5
4F6
 100
AcDbEntity
 8
0
 100
AcDbLine
 62
   256
 10
650.79972508
 20
580.84490001
 30
-26.23659036
 11
670.31049077
 21
568.62007535
 31
-24.74003176
 0
LINE
 5
4F7
 100
AcDbEntity
 8
0
 100
AcDbLine
 62
   256
 10
670.31049077
 20
568.62007535
 30
-24.74003176
 11
691.61804754
 21
553.81768490
 31
-24.10827798
 0
LINE
 5
4F8
 100
AcDbEntity
 8
0
 100
AcDbLine
 62
   256
 10
691.61804754
 20
553.81768490
 30
-24.10827798
 11
706.43477067
 21
542.89301621
 31
-22.92002887
 0
LINE
 5
4F9
 100
AcDbEntity
 8
0
 100
AcDbLine
 62
   256
 10
706.43477067
 20
542.89301621
 30
-22.92002887
 11
735.02542952
 21
522.08764900
 31
-22.40020226
 0
LINE
 5
4FA
 100
AcDbEntity
 8
0
 100
AcDbLine
 62
   256
 10
735.02542952
 20
522.08764900
 30
-22.40020226
 11
762.93852296
 21
497.85358704
 31
-20.45321004
 0
LINE
 5
4FB
 100
AcDbEntity
 8
0
 100
AcDbLine
 62
   256
 10
762.93852296
 20
497.85358704
 30
-20.45321004
 11
792.96084015
 21
471.27242492
 31
-18.64716996
 0
LINE
 5
4FC
 100
AcDbEntity
 8
0
 100
AcDbLine
 62
   256
 10
792.96084015
 20
471.27242492
 30
-18.64716996
 11
820.70082949
 21
441.83750413
 31
-16.09758575
 0
LINE
 5
4FD
 100
AcDbEntity
 8
0
 100
AcDbLine
 62
   256
 10
820.70082949
 20
441.83750413
 30
-16.09758575
 11
847.22458105
 21
415.14315524
 31
-14.40037955
 0
LINE
 5
4FE
 100
AcDbEntity
 8
0
 100
AcDbLine
 62
   256
 10
847.22458105
 20
415.14315524
 30
-14.40037955
 11
884.43345844
 21
377.96751009
 31
-12.04415054
 0
LINE
 5
4FF
 100
AcDbEntity
 8
0
 100
AcDbLine
 62
   256
 10
884.43345844
 20
377.96751009
 30
-12.04415054
 11
916.85935531
 21
340.39209716
 31
-10.53171116
 0
LINE
 5
500
 100
AcDbEntity
 8
0
 100
AcDbLine
 62
   256
 10
916.85935531
 20
340.39209716
 30
-10.53171116
 11
945.52233091
 21
306.49260603
 31
-8.50232469
 0
LINE
 5
501
 100
AcDbEntity
 8
0
 100
AcDbLine
 62
   256
 10
945.52233091
 20
306.49260603
 30
-8.50232469
 11
978.90645002
 21
263.81589197
 31
-5.59228468
 0
LINE
 5
502
 100
AcDbEntity
 8
0
 100
AcDbLine
 62
   256
 10
978.90645002
 20
263.81589197
 30
-5.59228468
 11
1015.63920575
 21
214.90589384
 31
-2.01160793
 0
LINE
 5
503
 100
AcDbEntity
 8
0
 100
AcDbLine
 62
   256
 10
1015.63920575
 20
214.90589384
 30
-2.01160793
 11
1041.31659376
 21
177.72410148
 31
0.87585518
 0
LINE
 5
504
 100
AcDbEntity
 8
0
 100
AcDbLine
 62
   256
 10
1041.31659376
 20
177.72410148
 30
0.87585518
 11
1070.32114280
 21
136.46713815
 31
2.97694523
 0
LINE
 5
505
 100
AcDbEntity
 8
0
 100
AcDbLine
 62
   256
 10
1070.32114280
 20
136.46713815
 30
2.97694523
 11
1098.50128858
 21
95.32749409
 31
5.14959796
 0
LINE
 5
506
 100
AcDbEntity
 8
0
 100
AcDbLine
 62
   256
 10
1098.50128858
 20
95.32749409
 30
5.14959796
 11
1137.85371716
 21
30.30024675
 31
10.22566303
 0
LINE
 5
507
 100
AcDbEntity
 8
0
 100
AcDbLine
 62
   256
 10
1137.85371716
 20
30.30024675
 30
10.22566303
 11
1176.70063332
 21
-33.43134165
 31
13.13135901
 0
LINE
 5
508
 100
AcDbEntity
 8
0
 100
AcDbLine
 62
   256
 10
1176.70063332
 20
-33.43134165
 30
13.13135901
 11
1206.65120102
 21
-86.21855696
 31
16.70187814
 0
LINE
 5
509
 100
AcDbEntity
 8
0
 100
AcDbLine
 62
   256
 10
1206.65120102
 20
-86.21855696
 30
16.70187814
 11
1236.20909071
 21
-141.91343800
 31
19.55616836
 0
LINE
 5
50A
 100
AcDbEntity
 8
0
 100
AcDbLine
 62
   256
 10
1236.20909071
 20
-141.91343800
 30
19.55616836
 11
1259.58037080
 21
-188.48197453
 31
23.29597464
 0
LINE
 5
50B
 100
AcDbEntity
 8
0
 100
AcDbLine
 62
   256
 10
1259.58037080
 20
-188.48197453
 30
23.29597464
 11
1290.32060042
 21
-250.04286620
 31
27.19064735
 0
LINE
 5
50C
 100
AcDbEntity
 8
0
 100
AcDbLine
 62
   256
 10
1290.32060042
 20
-250.04286620
 30
27.19064735
 11
1326.29624458
 21
-330.89776054
 31
32.27944895
 0
LINE
 5
50D
 100
AcDbEntity
 8
0
 100
AcDbLine
 62
   256
 10
1326.29624458
 20
-330.89776054
 30
32.27944895
 11
1350.70711070
 21
-389.56662322
 31
34.21436971
 0
LINE
 5
50E
 100
AcDbEntity
 8
0
 100
AcDbLine
 62
   256
 10
1350.70711070
 20
-389.56662322
 30
34.21436971
 11
1376.57280127
 21
-451.23746084
 31
36.91083389
 0
LINE
 5
50F
 100
AcDbEntity
 8
0
 100
AcDbLine
 62
   256
 10
1376.57280127
 20
-451.23746084
 30
36.91083389
 11
1402.75196785
 21
-520.24415753
 31
40.36397666
 0
LINE
 5
510
 100
AcDbEntity
 8
0
 100
AcDbLine
 62
   256
 10
1402.75196785
 20
-520.24415753
 30
40.36397666
 11
1422.57536219
 21
-577.26145214
 31
43.99282720
 0
LINE
 5
511
 100
AcDbEntity
 8
0
 100
AcDbLine
 62
   256
 10
1422.57536219
 20
-577.26145214
 30
43.99282720
 11
1437.46434453
 21
-631.93819567
 31
49.66229616
 0
LINE
 5
512
 100
AcDbEntity
 8
0
 100
AcDbLine
 62
   256
 10
1437.46434453
 20
-631.93819567
 30
49.66229616
 11
1449.20133416
 21
-668.22486036
 31
51.25791410
 0
LINE
 5
513
 100
AcDbEntity
 8
0
 100
AcDbLine
 62
   256
 10
1449.20133416
 20
-668.22486036
 30
51.25791410
 11
1457.18140450
 21
-697.49473252
 31
52.90327378
 0
LINE
 5
514
 100
AcDbEntity
 8
0
 100
AcDbLine
 62
   256
 10
1457.18140450
 20
-697.49473252
 30
52.90327378
 11
1465.74539152
 21
-733.54122875
 31
55.80518339
 0
LINE
 5
515
 100
AcDbEntity
 8
0
 100
AcDbLine
 62
   256
 10
1465.74539152
 20
-733.54122875
 30
55.80518339
 11
1473.89611771
 21
-773.38951002
 31
59.41481059
 0
LINE
 5
516
 100
AcDbEntity
 8
0
 100
AcDbLine
 62
   256
 10
1473.89611771
 20
-773.38951002
 30
59.41481059
 11
1486.23426254
 21
-819.29825629
 31
59.56373776
 0
LINE
 5
517
 100
AcDbEntity
 8
0
 100
AcDbLine
 62
   256
 10
1486.23426254
 20
-819.29825629
 30
59.56373776
 11
1500.28528830
 21
-874.83761736
 31
60.99488675
 0
LINE
 5
518
 100
AcDbEntity
 8
0
 100
AcDbLine
 62
   256
 10
1500.28528830
 20
-874.83761736
 30
60.99488675
 11
1508.90902187
 21
-931.76571858
 31
66.19866074
 0
LINE
 5
519
 100
AcDbEntity
 8
0
 100
AcDbLine
 62
   256
 10
1508.90902187
 20
-931.76571858
 30
66.19866074
 11
1514.65625910
 21
-961.63474397
 31
69.22892935
 0
LINE
 5
51A
 100
AcDbEntity
 8
0
 100
AcDbLine
 62
   256
 10
1514.65625910
 20
-961.63474397
 30
69.22892935
 11
1520.83753284
 21
-993.69611271
 31
68.77400447
 0
LINE
 5
51B
 100
AcDbEntity
 8
0
 100
AcDbLine
 62
   256
 10
1520.83753284
 20
-993.69611271
 30
68.77400447
 11
1527.92342438
 21
-1045.77870339
 31
68.15330412
 0
LINE
 5
51C
 100
AcDbEntity
 8
0
 100
AcDbLine
 62
   256
 10
1527.92342438
 20
-1045.77870339
 30
68.15330412
 11
1538.00425227
 21
-1118.72557996
 31
67.65982711
 0
LINE
 5
51D
 100
AcDbEntity
 8
0
 100
AcDbLine
 62
   256
 10
1538.00425227
 20
-1118.72557996
 30
67.65982711
 11
1552.70769996
 21
-1199.68289504
 31
64.69426151
 0
LINE
 5
51E
 100
AcDbEntity
 8
0
 100
AcDbLine
 62
   256
 10
1552.70769996
 20
-1199.68289504
 30
64.69426151
 11
1562.34982578
 21
-1268.05141433
 31
64.63949872
 0
LINE
 5
51F
 100
AcDbEntity
 8
0
 100
AcDbLine
 62
   256
 10
1562.34982578
 20
-1268.05141433
 30
64.63949872
 11
1569.10176517
 21
-1329.63122591
 31
66.04961544
 0
LINE
 5
520
 100
AcDbEntity
 8
0
 100
AcDbLine
 62
   256
 10
1569.10176517
 20
-1329.63122591
 30
66.04961544
 11
1574.99195527
 21
-1381.82182882
 31
66.50929203
 0
LINE
 5
521
 100
AcDbEntity
 8
0
 100
AcDbLine
 62
   256
 10
1574.99195527
 20
-1381.82182882
 30
66.50929203
 11
1584.02042505
 21
-1429.62590188
 31
65.51311198
 0
LINE
 5
522
 100
AcDbEntity
 8
0
 100
AcDbLine
 62
   256
 10
1584.02042505
 20
-1429.62590188
 30
65.51311198
 11
1590.37262475
 21
-1484.68581964
 31
67.30380472
 0
LINE
 5
523
 100
AcDbEntity
 8
0
 100
AcDbLine
 62
   256
 10
1590.37262475
 20
-1484.68581964
 30
67.30380472
 11
1597.20212832
 21
-1544.38921292
 31
68.55265767
 0
LINE
 5
524
 100
AcDbEntity
 8
0
 100
AcDbLine
 62
   256
 10
1597.20212832
 20
-1544.38921292
 30
68.55265767
 11
1604.02927317
 21
-1592.90012084
 31
68.67434953
 0
LINE
 5
525
 100
AcDbEntity
 8
0
 100
AcDbLine
 62
   256
 10
1604.02927317
 20
-1592.90012084
 30
68.67434953
 11
1608.24015154
 21
-1643.14638507
 31
70.65687992
 0
LINE
 5
526
 100
AcDbEntity
 8
0
 100
AcDbLine
 62
   256
 10
1608.24015154
 20
-1643.14638507
 30
70.65687992
 11
1614.68299544
 21
-1701.26493302
 31
71.82970794
 0
LINE
 5
527
 100
AcDbEntity
 8
0
 100
AcDbLine
 62
   256
 10
1614.68299544
 20
-1701.26493302
 30
71.82970794
 11
1619.08137812
 21
-1751.63700231
 31
73.62536629
 0
LINE
 5
528
 100
AcDbEntity
 8
0
 100
AcDbLine
 62
   256
 10
1619.08137812
 20
-1751.63700231
 30
73.62536629
 11
1626.47751325
 21
-1824.95436802
 31
75.63705662
 0
LINE
 5
529
 100
AcDbEntity
 8
0
 100
AcDbLine
 62
   256
 10
1626.47751325
 20
-1824.95436802
 30
75.63705662
 11
1629.97206843
 21
-1878.75893827
 31
78.51128643
 0
LINE
 5
52A
 100
AcDbEntity
 8
0
 100
AcDbLine
 62
   256
 10
1629.97206843
 20
-1878.75893827
 30
78.51128643
 11
1635.25624366
 21
-1943.81476881
 31
81.33521513
 0
LINE
 5
52B
 100
AcDbEntity
 8
0
 100
AcDbLine
 62
   256
 10
1635.25624366
 20
-1943.81476881
 30
81.33521513
 11
1641.53289215
 21
-1996.96606959
 31
82.67102002
 0
LINE
 5
52C
 100
AcDbEntity
 8
0
 100
AcDbLine
 62
   256
 10
1641.53289215
 20
-1996.96606959
 30
82.67102002
 11
1645.49301479
 21
-2052.91851616
 31
85.40263003
 0
LINE
 5
52D
 100
AcDbEntity
 8
0
 100
AcDbLine
 62
   256
 10
1645.49301479
 20
-2052.91851616
 30
85.40263003
 11
1652.01350596
 21
-2130.80488987
 31
88.09588367
 0
LINE
 5
52E
 100
AcDbEntity
 8
0
 100
AcDbLine
 62
   256
 10
1652.01350596
 20
-2130.80488987
 30
88.09588367
 11
1655.34519539
 21
-2191.33227116
 31
91.99430580
 0
LINE
 5
52F
 100
AcDbEntity
 8
0
 100
AcDbLine
 62
   256
 10
1655.34519539
 20
-2191.33227116
 30
91.99430580
 11
1658.47056927
 21
-2234.62770818
 31
93.82030351
 0
LINE
 5
530
 100
AcDbEntity
 8
0
 100
AcDbLine
 62
   256
 10
1658.47056927
 20
-2234.62770818
 30
93.82030351
 11
1660.40696488
 21
-2269.79872248
 31
95.80153107
 0
LINE
 5
531
 100
AcDbEntity
 8
0
 100
AcDbLine
 62
   256
 10
1660.40696488
 20
-2269.79872248
 30
95.80153107
 11
1662.49796410
 21
-2315.05200906
 31
97.00147609
 0
LINE
 5
532
 100
AcDbEntity
 8
0
 100
AcDbLine
 62
   256
 10
1662.49796410
 20
-2315.05200906
 30
97.00147609
 11
1665.34457009
 21
-2356.71783303
 31
95.33277877
 0
LINE
 5
533
 100
AcDbEntity
 8
0
 100
AcDbLine
 62
   256
 10
1665.34457009
 20
-2356.71783303
 30
95.33277877
 11
1668.90923138
 21
-2418.10522251
 31
93.14380880
 0
LINE
 5
534
 100
AcDbEntity
 8
0
 100
AcDbLine
 62
   256
 10
1668.90923138
 20
-2418.10522251
 30
93.14380880
 11
1672.42842279
 21
-2476.76907552
 31
89.64704563
 0
LINE
 5
535
 100
AcDbEntity
 8
0
 100
AcDbLine
 62
   256
 10
1672.42842279
 20
-2476.76907552
 30
89.64704563
 11
1672.47813888
 21
-2517.10949894
 31
88.62687837
 0
LINE
 5
536
 100
AcDbEntity
 8
0
 100
AcDbLine
 62
   256
 10
1672.47813888
 20
-2517.10949894
 30
88.62687837
 11
1673.77688689
 21
-2561.50931974
 31
86.64674934
 0
LINE
 5
537
 100
AcDbEntity
 8
0
 100
AcDbLine
 62
   256
 10
1673.77688689
 20
-2561.50931974
 30
86.64674934
 11
1675.79717494
 21
-2591.75986999
 31
84.76462901
 0
LINE
 5
538
 100
AcDbEntity
 8
0
 100
AcDbLine
 62
   256
 10
1675.79717494
 20
-2591.75986999
 30
84.76462901
 11
1678.52561806
 21
-2642.94283982
 31
80.60773952
 0
LINE
 5
539
 100
AcDbEntity
 8
0
 100
AcDbLine
 62
   256
 10
1678.52561806
 20
-2642.94283982
 30
80.60773952
 11
1679.71148347
 21
-2691.18483787
 31
77.81103243
 0
LINE
 5
53A
 100
AcDbEntity
 8
0
 100
AcDbLine
 62
   256
 10
1679.71148347
 20
-2691.18483787
 30
77.81103243
 11
1680.77400359
 21
-2740.00948374
 31
75.46433556
 0
LINE
 5
53B
 100
AcDbEntity
 8
0
 100
AcDbLine
 62
   256
 10
1680.77400359
 20
-2740.00948374
 30
75.46433556
 11
1682.73592528
 21
-2782.21979961
 31
70.85757417
 0
LINE
 5
53C
 100
AcDbEntity
 8
0
 100
AcDbLine
 62
   256
 10
1682.73592528
 20
-2782.21979961
 30
70.85757417
 11
1683.61172863
 21
-2837.93685553
 31
65.42244296
 0
LINE
 5
53D
 100
AcDbEntity
 8
0
 100
AcDbLine
 62
   256
 10
1683.61172863
 20
-2837.93685553
 30
65.42244296
 11
1684.71063243
 21
-2898.44799795
 31
58.95131947
 0
LINE
 5
53E
 100
AcDbEntity
 8
0
 100
AcDbLine
 62
   256
 10
1684.71063243
 20
-2898.44799795
 30
58.95131947
 11
1685.38730621
 21
-2952.52054569
 31
52.40904596
 0
LINE
 5
53F
 100
AcDbEntity
 8
0
 100
AcDbLine
 62
   256
 10
1685.38730621
 20
-2952.52054569
 30
52.40904596
 11
1688.21247203
 21
-3008.25872341
 31
42.94789172
 0
LINE
 5
540
 100
AcDbEntity
 8
0
 100
AcDbLine
 62
   256
 10
1688.21247203
 20
-3008.25872341
 30
42.94789172
 11
1691.44707984
 21
-3030.15460987
 31
37.84686673
 0
LINE
 5
541
 100
AcDbEntity
 8
0
 100
AcDbLine
 62
   256
 10
1691.44707984
 20
-3030.15460987
 30
37.84686673
 11
1692.62426986
 21
-3048.19873064
 31
35.36678351
 0
LINE
 5
542
 100
AcDbEntity
 8
0
 100
AcDbLine
 62
   256
 10
853.34602780
 20
-692.86142397
 30
66.51021345
 11
855.47999407
 21
-695.46660330
 31
84.15451613
 0
LINE
 5
543
 100
AcDbEntity
 8
0
 100
AcDbLine
 62
   256
 10
855.47999407
 20
-695.46660330
 30
84.15451613
 11
859.81443947
 21
-701.48793804
 31
102.79868974
 0
LINE
 5
544
 100
AcDbEntity
 8
0
 100
AcDbLine
 62
   256
 10
859.81443947
 20
-701.48793804
 30
102.79868974
 11
866.45815936
 21
-705.41780951
 31
116.29789353
 0
LINE
 5
545
 100
AcDbEntity
 8
0
 100
AcDbLine
 62
   256
 10
866.45815936
 20
-705.41780951
 30
116.29789353
 11
886.37471922
 21
-708.24094261
 31
125.59806015
 0
LINE
 5
546
 100
AcDbEntity
 8
0
 100
AcDbLine
 62
   256
 10
886.37471922
 20
-708.24094261
 30
125.59806015
 11
917.41822584
 21
-706.81466479
 31
133.18981888
 0
LINE
 5
547
 100
AcDbEntity
 8
0
 100
AcDbLine
 62
   256
 10
917.41822584
 20
-706.81466479
 30
133.18981888
 11
961.96384696
 21
-696.75815361
 31
136.28240746
 0
LINE
 5
548
 100
AcDbEntity
 8
0
 100
AcDbLine
 62
   256
 10
961.96384696
 20
-696.75815361
 30
136.28240746
 11
1015.17049863
 21
-690.56999990
 31
138.96899425
 0
LINE
 5
549
 100
AcDbEntity
 8
0
 100
AcDbLine
 62
   256
 10
1015.17049863
 20
-690.56999990
 30
138.96899425
 11
1038.12608165
 21
-685.82455511
 31
139.13743261
 0
LINE
 5
54A
 100
AcDbEntity
 8
0
 100
AcDbLine
 62
   256
 10
1038.12608165
 20
-685.82455511
 30
139.13743261
 11
1080.07790870
 21
-679.26427563
 31
137.21559159
 0
LINE
 5
54B
 100
AcDbEntity
 8
0
 100
AcDbLine
 62
   256
 10
1080.07790870
 20
-679.26427563
 30
137.21559159
 11
1128.65100475
 21
-670.59282568
 31
133.13893664
 0
LINE
 5
54C
 100
AcDbEntity
 8
0
 100
AcDbLine
 62
   256
 10
1128.65100475
 20
-670.59282568
 30
133.13893664
 11
1170.54220778
 21
-664.75934388
 31
127.24725085
 0
LINE
 5
54D
 100
AcDbEntity
 8
0
 100
AcDbLine
 62
   256
 10
1170.54220778
 20
-664.75934388
 30
127.24725085
 11
1212.51458114
 21
-655.09659567
 31
120.46173838
 0
LINE
 5
54E
 100
AcDbEntity
 8
0
 100
AcDbLine
 62
   256
 10
1212.51458114
 20
-655.09659567
 30
120.46173838
 11
1230.18390284
 21
-657.27713549
 31
116.17923388
 0
LINE
 5
54F
 100
AcDbEntity
 8
0
 100
AcDbLine
 62
   256
 10
1230.18390284
 20
-657.27713549
 30
116.17923388
 11
1256.72940055
 21
-648.53163556
 31
105.44113832
 0
LINE
 5
550
 100
AcDbEntity
 8
0
 100
AcDbLine
 62
   256
 10
1256.72940055
 20
-648.53163556
 30
105.44113832
 11
1266.00653195
 21
-643.14053197
 31
98.43329354
 0
LINE
 5
551
 100
AcDbEntity
 8
0
 100
AcDbLine
 62
   256
 10
1266.00653195
 20
-643.14053197
 30
98.43329354
 11
1267.71790798
 21
-638.08055199
 31
90.34103051
 0
LINE
 5
552
 100
AcDbEntity
 8
0
 100
AcDbLine
 62
   256
 10
1267.71790798
 20
-638.08055199
 30
90.34103051
 11
1265.56676763
 21
-631.44066522
 31
73.43705388
 0
LINE
 5
553
 100
AcDbEntity
 8
0
 100
AcDbLine
 62
   256
 10
1265.56676763
 20
-631.44066522
 30
73.43705388
 11
1265.09463999
 21
-628.13623950
 31
57.69342852
 0
LINE
 5
554
 100
AcDbEntity
 8
0
 100
AcDbLine
 62
   256
 10
1265.09463999
 20
-628.13623950
 30
57.69342852
 11
1264.42178553
 21
-627.59516662
 31
46.06449554
 0
POINT
 5
555
 100
AcDbEntity
 8
0
 100
AcDbPoint
 62
   256
 10
1286.42083875
 20
-721.39368864
 30
99.92050491
 0
POINT
 5
556
 100
AcDbEntity
 8
0
 100
AcDbPoint
 62
   256
 10
1357.89778464
 20
-670.67632645
 30
77.31254481
 0
POINT
 5
557
 100
AcDbEntity
 8
0
 100
AcDbPoint
 62
   256
 10
1382.89715699
 20
-579.87288588
 30
61.66761034
 0
POINT
 5
558
 100
AcDbEntity
 8
0
 100
AcDbPoint
 62
   256
 10
1329.43191148
 20
-386.79698989
 30
46.76002749
 0
POINT
 5
559
 100
AcDbEntity
 8
0
 100
AcDbPoint
 62
   256
 10
1245.10569862
 20
-202.23820191
 30
35.84760229
 0
POINT
 5
55A
 100
AcDbEntity
 8
0
 100
AcDbPoint
 62
   256
 10
1145.57669795
 20
-29.90425794
 30
24.53415649
 0
POINT
 5
55B
 100
AcDbEntity
 8
0
 100
AcDbPoint
 62
   256
 10
1043.72280633
 20
138.26503211
 30
12.37074413
 0
POINT
 5
55C
 100
AcDbEntity
 8
0
 100
AcDbPoint
 62
   256
 10
928.97620610
 20
298.69246356
 30
0.60192051
 0
POINT
 5
55D
 100
AcDbEntity
 8
0
 100
AcDbPoint
 62
   256
 10
798.87903413
 20
446.41036370
 30
-10.96531877
 0
POINT
 5
55E
 100
AcDbEntity
 8
0
 100
AcDbPoint
 62
   256
 10
707.78021538
 20
534.90202782
 30
-19.59103359
 0
POINT
 5
55F
 100
AcDbEntity
 8
0
 100
AcDbPoint
 62
   256
 10
596.60818066
 20
600.81905415
 30
-22.18587111
 0
POINT
 5
560
 100
AcDbEntity
 8
0
 100
AcDbPoint
 62
   256
 10
475.53800779
 20
624.30863381
 30
-24.14490637
 0
LINE
 5
561
 100
AcDbEntity
 8
0
 100
AcDbLine
 62
   256
 10
476.41975998
 20
633.12256434
 30
-30.35174066
 11
476.88395094
 21
634.97116186
 31
-32.01771881
 0
LINE
 5
562
 100
AcDbEntity
 8
0
 100
AcDbLine
 62
   256
 10
476.88395094
 20
634.97116186
 30
-32.01771881
 11
478.01411105
 21
637.59404643
 31
-34.74051084
 0
LINE
 5
563
 100
AcDbEntity
 8
0
 100
AcDbLine
 62
   256
 10
478.01411105
 20
637.59404643
 30
-34.74051084
 11
478.52313636
 21
642.10682642
 31
-37.22904887
 0
LINE
 5
564
 100
AcDbEntity
 8
0
 100
AcDbLine
 62
   256
 10
478.52313636
 20
642.10682642
 30
-37.22904887
 11
478.88724454
 21
651.76412089
 31
-39.51107211
 0
LINE
 5
565
 100
AcDbEntity
 8
0
 100
AcDbLine
 62
   256
 10
478.88724454
 20
651.76412089
 30
-39.51107211
 11
477.73968962
 21
666.63238404
 31
-41.07007676
 0
LINE
 5
566
 100
AcDbEntity
 8
0
 100
AcDbLine
 62
   256
 10
477.73968962
 20
666.63238404
 30
-41.07007676
 11
476.38233179
 21
683.53429401
 31
-40.42287678
 0
LINE
 5
567
 100
AcDbEntity
 8
0
 100
AcDbLine
 62
   256
 10
476.38233179
 20
683.53429401
 30
-40.42287678
 11
475.83115181
 21
689.25010479
 31
-41.31466135
 0
LINE
 5
568
 100
AcDbEntity
 8
0
 100
AcDbLine
 62
   256
 10
475.83115181
 20
689.25010479
 30
-41.31466135
 11
464.55438893
 21
773.27728743
 31
-38.48804787
 0
LINE
 5
569
 100
AcDbEntity
 8
0
 100
AcDbLine
 62
   256
 10
464.55438893
 20
773.27728743
 30
-38.48804787
 11
463.48332509
 21
782.88443756
 31
-43.68221763
 0
LINE
 5
56A
 100
AcDbEntity
 8
0
 100
AcDbLine
 62
   256
 10
463.48332509
 20
782.88443756
 30
-43.68221763
 11
460.32792287
 21
792.41009019
 31
-53.28735558
 0
LINE
 5
56B
 100
AcDbEntity
 8
0
 100
AcDbLine
 62
   256
 10
460.32792287
 20
792.41009019
 30
-53.28735558
 11
457.88764167
 21
799.86954784
 31
-61.00868023
 0
LINE
 5
56C
 100
AcDbEntity
 8
0
 100
AcDbLine
 62
   256
 10
457.88764167
 20
799.86954784
 30
-61.00868023
 11
455.99373536
 21
805.15214886
 31
-64.38072138
 0
LINE
 5
56D
 100
AcDbEntity
 8
0
 100
AcDbLine
 62
   256
 10
455.99373536
 20
805.15214886
 30
-64.38072138
 11
450.51195689
 21
830.24086183
 31
-72.27975922
 0
LINE
 5
56E
 100
AcDbEntity
 8
0
 100
AcDbLine
 62
   256
 10
450.51195689
 20
830.24086183
 30
-72.27975922
 11
446.09545462
 21
843.26619481
 31
-77.75783561
 0
LINE
 5
56F
 100
AcDbEntity
 8
0
 100
AcDbLine
 62
   256
 10
446.09545462
 20
843.26619481
 30
-77.75783561
 11
441.64077591
 21
855.90937668
 31
-80.63408243
 0
LINE
 5
570
 100
AcDbEntity
 8
0
 100
AcDbLine
 62
   256
 10
441.64077591
 20
855.90937668
 30
-80.63408243
 11
441.32065289
 21
859.28769928
 31
-89.49624466
 0
LINE
 5
571
 100
AcDbEntity
 8
0
 100
AcDbLine
 62
   256
 10
872.49076566
 20
-1300.17670740
 30
453.55669499
 11
842.64041222
 21
-845.66369647
 31
145.70470807
 0
LINE
 5
572
 100
AcDbEntity
 8
0
 100
AcDbLine
 62
   256
 10
842.64041222
 20
-845.66369647
 30
145.70470807
 11
1459.82048304
 21
-986.21570969
 31
109.64168704
 0
LINE
 5
573
 100
AcDbEntity
 8
0
 100
AcDbLine
 62
   256
 10
1459.82048304
 20
-986.21570969
 30
109.64168704
 11
1469.67044123
 21
-1387.29149567
 31
400.03786058
 0
LINE
 5
574
 100
AcDbEntity
 8
0
 100
AcDbLine
 62
   256
 10
1469.67044123
 20
-1387.29149567
 30
400.03786058
 11
1378.53811335
 21
-1377.69361392
 31
410.77283258
 0
LINE
 5
575
 100
AcDbEntity
 8
0
 100
AcDbLine
 62
   256
 10
1378.53811335
 20
-1377.69361392
 30
410.77283258
 11
1302.59204505
 21
-1368.59241492
 31
419.05013388
 0
LINE
 5
576
 100
AcDbEntity
 8
0
 100
AcDbLine
 62
   256
 10
1302.59204505
 20
-1368.59241492
 30
419.05013388
 11
1225.28590481
 21
-1359.42853824
 31
427.98396562
 0
LINE
 5
577
 100
AcDbEntity
 8
0
 100
AcDbLine
 62
   256
 10
1225.28590481
 20
-1359.42853824
 30
427.98396562
 11
1143.32562816
 21
-1347.05053513
 31
435.31197331
 0
LINE
 5
578
 100
AcDbEntity
 8
0
 100
AcDbLine
 62
   256
 10
1143.32562816
 20
-1347.05053513
 30
435.31197331
 11
1059.81947348
 21
-1336.37577984
 31
444.29195596
 0
LINE
 5
579
 100
AcDbEntity
 8
0
 100
AcDbLine
 62
   256
 10
1059.81947348
 20
-1336.37577984
 30
444.29195596
 11
958.00063116
 21
-1315.59451714
 31
449.33066966
 0
LINE
 5
57A
 100
AcDbEntity
 8
0
 100
AcDbLine
 62
   256
 10
958.00063116
 20
-1315.59451714
 30
449.33066966
 11
903.02810957
 21
-1306.34076579
 31
454.63968341
 0
LINE
 5
57B
 100
AcDbEntity
 8
0
 100
AcDbLine
 62
   256
 10
903.02810957
 20
-1306.34076579
 30
454.63968341
 11
871.64580479
 21
-1299.84921052
 31
455.28157579
 0
LINE
 5
57C
 100
AcDbEntity
 8
0
 100
AcDbLine
 62
   256
 10
1514.56705982
 20
-1419.36129756
 30
417.13446793
 11
1517.84370451
 21
-1421.11366524
 31
413.61879223
 0
LINE
 5
57D
 100
AcDbEntity
 8
0
 100
AcDbLine
 62
   256
 10
1517.84370451
 20
-1421.11366524
 30
413.61879223
 11
1521.24338756
 21
-1426.24331111
 31
408.57873164
 0
LINE
 5
57E
 100
AcDbEntity
 8
0
 100
AcDbLine
 62
   256
 10
1521.24338756
 20
-1426.24331111
 30
408.57873164
 11
1521.54693245
 21
-1432.47001626
 31
404.87312751
 0
LINE
 5
57F
 100
AcDbEntity
 8
0
 100
AcDbLine
 62
   256
 10
1521.54693245
 20
-1432.47001626
 30
404.87312751
 11
1526.36311193
 21
-1464.88293048
 31
395.32267148
 0
LINE
 5
580
 100
AcDbEntity
 8
0
 100
AcDbLine
 62
   256
 10
1526.36311193
 20
-1464.88293048
 30
395.32267148
 11
1538.79128537
 21
-1551.32344214
 31
370.84494944
 0
LINE
 5
581
 100
AcDbEntity
 8
0
 100
AcDbLine
 62
   256
 10
1538.79128537
 20
-1551.32344214
 30
370.84494944
 11
1556.67464192
 21
-1668.30087049
 31
335.45251704
 0
LINE
 5
582
 100
AcDbEntity
 8
0
 100
AcDbLine
 62
   256
 10
1556.67464192
 20
-1668.30087049
 30
335.45251704
 11
1569.69316863
 21
-1751.95656508
 31
309.06585827
 0
LINE
 5
583
 100
AcDbEntity
 8
0
 100
AcDbLine
 62
   256
 10
1569.69316863
 20
-1751.95656508
 30
309.06585827
 11
1584.78125209
 21
-1842.00356866
 31
278.65755779
 0
LINE
 5
584
 100
AcDbEntity
 8
0
 100
AcDbLine
 62
   256
 10
1584.78125209
 20
-1842.00356866
 30
278.65755779
 11
1601.61034545
 21
-1938.60673913
 31
243.56541371
 0
LINE
 5
585
 100
AcDbEntity
 8
0
 100
AcDbLine
 62
   256
 10
1601.61034545
 20
-1938.60673913
 30
243.56541371
 11
1611.31613489
 21
-1998.45739926
 31
218.08858943
 0
LINE
 5
586
 100
AcDbEntity
 8
0
 100
AcDbLine
 62
   256
 10
1611.31613489
 20
-1998.45739926
 30
218.08858943
 11
1627.95115226
 21
-2099.45650984
 31
174.97296456
 0
LINE
 5
587
 100
AcDbEntity
 8
0
 100
AcDbLine
 62
   256
 10
1627.95115226
 20
-2099.45650984
 30
174.97296456
 11
1638.88735159
 21
-2167.19804791
 31
143.30426531
 0
LINE
 5
588
 100
AcDbEntity
 8
0
 100
AcDbLine
 62
   256
 10
1638.88735159
 20
-2167.19804791
 30
143.30426531
 11
1641.53355984
 21
-2201.72436257
 31
125.09735855
 0
LINE
 5
589
 100
AcDbEntity
 8
0
 100
AcDbLine
 62
   256
 10
1641.53355984
 20
-2201.72436257
 30
125.09735855
 11
1647.73489519
 21
-2236.54021758
 31
108.74221585
 0
LINE
 5
58A
 100
AcDbEntity
 8
0
 100
AcDbLine
 62
   256
 10
1647.73489519
 20
-2236.54021758
 30
108.74221585
 11
1650.44661450
 21
-2255.31005107
 31
99.86054550
 0
LINE
 5
58B
 100
AcDbEntity
 8
0
 100
AcDbLine
 62
   256
 10
1650.44661450
 20
-2255.31005107
 30
99.86054550
 11
1648.86083595
 21
-2229.95745048
 31
98.11754291
 0
LINE
 5
58C
 100
AcDbEntity
 8
0
 100
AcDbLine
 62
   256
 10
1648.86083595
 20
-2229.95745048
 30
98.11754291
 11
1639.31651917
 21
-2145.31050532
 31
94.15770088
 0
LINE
 5
58D
 100
AcDbEntity
 8
0
 100
AcDbLine
 62
   256
 10
1639.31651917
 20
-2145.31050532
 30
94.15770088
 11
1631.90559953
 21
-2060.91451394
 31
90.03762050
 0
LINE
 5
58E
 100
AcDbEntity
 8
0
 100
AcDbLine
 62
   256
 10
1631.90559953
 20
-2060.91451394
 30
90.03762050
 11
1619.95654972
 21
-1936.03989735
 31
84.85129192
 0
LINE
 5
58F
 100
AcDbEntity
 8
0
 100
AcDbLine
 62
   256
 10
1619.95654972
 20
-1936.03989735
 30
84.85129192
 11
1606.75432946
 21
-1799.52884533
 31
79.81375909
 0
LINE
 5
590
 100
AcDbEntity
 8
0
 100
AcDbLine
 62
   256
 10
1606.75432946
 20
-1799.52884533
 30
79.81375909
 11
1589.64706710
 21
-1652.86473945
 31
75.98842248
 0
LINE
 5
591
 100
AcDbEntity
 8
0
 100
AcDbLine
 62
   256
 10
1589.64706710
 20
-1652.86473945
 30
75.98842248
 11
1571.67485110
 21
-1503.21456181
 31
72.35371073
 0
LINE
 5
592
 100
AcDbEntity
 8
0
 100
AcDbLine
 62
   256
 10
1571.67485110
 20
-1503.21456181
 30
72.35371073
 11
1553.14644522
 21
-1353.46044108
 31
70.88633905
 0
LINE
 5
593
 100
AcDbEntity
 8
0
 100
AcDbLine
 62
   256
 10
1553.14644522
 20
-1353.46044108
 30
70.88633905
 11
1538.46808173
 21
-1242.01207281
 31
70.66711503
 0
LINE
 5
594
 100
AcDbEntity
 8
0
 100
AcDbLine
 62
   256
 10
1538.46808173
 20
-1242.01207281
 30
70.66711503
 11
1522.36218253
 21
-1123.90703719
 31
72.12302129
 0
LINE
 5
595
 100
AcDbEntity
 8
0
 100
AcDbLine
 62
   256
 10
1522.36218253
 20
-1123.90703719
 30
72.12302129
 11
1508.90427730
 21
-1031.73717770
 31
73.06066547
 0
LINE
 5
596
 100
AcDbEntity
 8
0
 100
AcDbLine
 62
   256
 10
1508.90427730
 20
-1031.73717770
 30
73.06066547
 11
1508.03531174
 21
-996.78364277
 31
73.36195837
 0
LINE
 5
597
 100
AcDbEntity
 8
0
 100
AcDbLine
 62
   256
 10
1508.03531174
 20
-996.78364277
 30
73.36195837
 11
1502.78501105
 21
-968.46221839
 31
74.43307962
 0
LINE
 5
598
 100
AcDbEntity
 8
0
 100
AcDbLine
 62
   256
 10
1502.78501105
 20
-968.46221839
 30
74.43307962
 11
1498.66022716
 21
-951.56319969
 31
74.64763797
 0
LINE
 5
599
 100
AcDbEntity
 8
0
 100
AcDbLine
 62
   256
 10
1498.66022716
 20
-951.56319969
 30
74.64763797
 11
1494.53185386
 21
-946.96966619
 31
74.91189364
 0
LINE
 5
59A
 100
AcDbEntity
 8
0
 100
AcDbLine
 62
   256
 10
1494.53185386
 20
-946.96966619
 30
74.91189364
 11
1487.72622027
 21
-943.42192082
 31
75.96755151
 0
LINE
 5
59B
 100
AcDbEntity
 8
0
 100
AcDbLine
 62
   256
 10
1487.72622027
 20
-943.42192082
 30
75.96755151
 11
1463.53673039
 21
-937.86437959
 31
76.96278589
 0
LINE
 5
59C
 100
AcDbEntity
 8
0
 100
AcDbLine
 62
   256
 10
1463.53673039
 20
-937.86437959
 30
76.96278589
 11
1379.64018456
 21
-920.41230112
 31
80.54372448
 0
LINE
 5
59D
 100
AcDbEntity
 8
0
 100
AcDbLine
 62
   256
 10
1379.64018456
 20
-920.41230112
 30
80.54372448
 11
1301.67264677
 21
-903.24227089
 31
84.49691102
 0
LINE
 5
59E
 100
AcDbEntity
 8
0
 100
AcDbLine
 62
   256
 10
1301.67264677
 20
-903.24227089
 30
84.49691102
 11
1235.00784749
 21
-889.08008352
 31
88.01121175
 0
LINE
 5
59F
 100
AcDbEntity
 8
0
 100
AcDbLine
 62
   256
 10
1504.13954325
 20
-1414.59094630
 30
413.28612526
 11
1478.64006658
 21
-1410.05304454
 31
417.07767374
 0
LINE
 5
5A0
 100
AcDbEntity
 8
0
 100
AcDbLine
 62
   256
 10
1478.64006658
 20
-1410.05304454
 30
417.07767374
 11
1416.58876642
 21
-1402.44290870
 31
424.60214095
 0
LINE
 5
5A1
 100
AcDbEntity
 8
0
 100
AcDbLine
 62
   256
 10
1416.58876642
 20
-1402.44290870
 30
424.60214095
 11
1334.97868467
 21
-1394.09196353
 31
433.19377459
 0
LINE
 5
5A2
 100
AcDbEntity
 8
0
 100
AcDbLine
 62
   256
 10
1334.97868467
 20
-1394.09196353
 30
433.19377459
 11
1254.35044927
 21
-1384.63993943
 31
442.18420505
 0
LINE
 5
5A3
 100
AcDbEntity
 8
0
 100
AcDbLine
 62
   256
 10
1254.35044927
 20
-1384.63993943
 30
442.18420505
 11
1155.50826740
 21
-1370.43697326
 31
450.86979862
 0
LINE
 5
5A4
 100
AcDbEntity
 8
0
 100
AcDbLine
 62
   256
 10
1155.50826740
 20
-1370.43697326
 30
450.86979862
 11
1075.30281611
 21
-1358.47458210
 31
458.46663441
 0
LINE
 5
5A5
 100
AcDbEntity
 8
0
 100
AcDbLine
 62
   256
 10
1075.30281611
 20
-1358.47458210
 30
458.46663441
 11
985.05541409
 21
-1342.22402323
 31
464.77476051
 0
LINE
 5
5A6
 100
AcDbEntity
 8
0
 100
AcDbLine
 62
   256
 10
985.05541409
 20
-1342.22402323
 30
464.77476051
 11
922.84946622
 21
-1330.37794127
 31
469.03124181
 0
LINE
 5
5A7
 100
AcDbEntity
 8
0
 100
AcDbLine
 62
   256
 10
922.84946622
 20
-1330.37794127
 30
469.03124181
 11
873.62500491
 21
-1321.11515407
 31
471.40726900
 0
LINE
 5
5A8
 100
AcDbEntity
 8
0
 100
AcDbLine
 62
   256
 10
873.62500491
 20
-1321.11515407
 30
471.40726900
 11
846.62117917
 21
-1318.09342816
 31
478.23356157
 0
LINE
 5
5A9
 100
AcDbEntity
 8
0
 100
AcDbLine
 62
   256
 10
846.62117917
 20
-1318.09342816
 30
478.23356157
 11
829.23739788
 21
-1317.59161566
 31
475.82753676
 0
LINE
 5
5AA
 100
AcDbEntity
 8
0
 100
AcDbLine
 62
   256
 10
829.23739788
 20
-1317.59161566
 30
475.82753676
 11
774.10627632
 21
-1317.97745811
 31
477.03024609
 0
LINE
 5
5AB
 100
AcDbEntity
 8
0
 100
AcDbLine
 62
   256
 10
774.10627632
 20
-1317.97745811
 30
477.03024609
 11
698.52861644
 21
-1320.37323552
 31
477.30615377
 0
LINE
 5
5AC
 100
AcDbEntity
 8
0
 100
AcDbLine
 62
   256
 10
698.52861644
 20
-1320.37323552
 30
477.30615377
 11
617.29378974
 21
-1324.80533790
 31
477.39696419
 0
LINE
 5
5AD
 100
AcDbEntity
 8
0
 100
AcDbLine
 62
   256
 10
617.29378974
 20
-1324.80533790
 30
477.39696419
 11
526.17561548
 21
-1332.02390005
 31
477.20783283
 0
LINE
 5
5AE
 100
AcDbEntity
 8
0
 100
AcDbLine
 62
   256
 10
526.17561548
 20
-1332.02390005
 30
477.20783283
 11
454.81529860
 21
-1341.36907094
 31
476.05142033
 0
LINE
 5
5AF
 100
AcDbEntity
 8
0
 100
AcDbLine
 62
   256
 10
454.81529860
 20
-1341.36907094
 30
476.05142033
 11
418.09099990
 21
-1345.69147239
 31
475.42296540
 0
LINE
 5
5B0
 100
AcDbEntity
 8
0
 100
AcDbLine
 62
   256
 10
418.09099990
 20
-1345.69147239
 30
475.42296540
 11
397.40615730
 21
-1348.43893098
 31
475.06440217
 0
LINE
 5
5B1
 100
AcDbEntity
 8
0
 100
AcDbLine
 62
   256
 10
397.40615730
 20
-1348.43893098
 30
475.06440217
 11
383.69772234
 21
-1351.08694951
 31
478.08275254
 0
LINE
 5
5B2
 100
AcDbEntity
 8
0
 100
AcDbLine
 62
   256
 10
811.62939392
 20
-1292.70648635
 30
457.22874204
 11
776.24651511
 21
-1295.04186642
 31
458.84492104
 0
LINE
 5
5B3
 100
AcDbEntity
 8
0
 100
AcDbLine
 62
   256
 10
776.24651511
 20
-1295.04186642
 30
458.84492104
 11
725.83553856
 21
-1297.56792038
 31
460.08646762
 0
LINE
 5
5B4
 100
AcDbEntity
 8
0
 100
AcDbLine
 62
   256
 10
725.83553856
 20
-1297.56792038
 30
460.08646762
 11
664.75091243
 21
-1300.62786232
 31
461.11210614
 0
LINE
 5
5B5
 100
AcDbEntity
 8
0
 100
AcDbLine
 62
   256
 10
664.75091243
 20
-1300.62786232
 30
461.11210614
 11
619.29472999
 21
-1303.72538017
 31
461.13338176
 0
LINE
 5
5B6
 100
AcDbEntity
 8
0
 100
AcDbLine
 62
   256
 10
619.29472999
 20
-1303.72538017
 30
461.13338176
 11
566.08673462
 21
-1307.52805137
 31
460.79433124
 0
LINE
 5
5B7
 100
AcDbEntity
 8
0
 100
AcDbLine
 62
   256
 10
566.08673462
 20
-1307.52805137
 30
460.79433124
 11
505.19045475
 21
-1313.21200845
 31
460.64673951
 0
LINE
 5
5B8
 100
AcDbEntity
 8
0
 100
AcDbLine
 62
   256
 10
505.19045475
 20
-1313.21200845
 30
460.64673951
 11
445.06424262
 21
-1319.92925572
 31
460.78841196
 0
LINE
 5
5B9
 100
AcDbEntity
 8
0
 100
AcDbLine
 62
   256
 10
445.06424262
 20
-1319.92925572
 30
460.78841196
 11
404.83801737
 21
-1325.74143025
 31
459.74947255
 0
LINE
 5
5BA
 100
AcDbEntity
 8
0
 100
AcDbLine
 62
   256
 10
404.83801737
 20
-1325.74143025
 30
459.74947255
 11
373.05700691
 21
-870.42374818
 31
150.56917227
 0
LINE
 5
5BB
 100
AcDbEntity
 8
0
 100
AcDbLine
 62
   256
 10
373.05700691
 20
-870.42374818
 30
150.56917227
 11
403.12532964
 21
-865.59879528
 31
149.45760787
 0
LINE
 5
5BC
 100
AcDbEntity
 8
0
 100
AcDbLine
 62
   256
 10
403.12532964
 20
-865.59879528
 30
149.45760787
 11
471.18238854
 21
-858.24804224
 31
153.83794619
 0
LINE
 5
5BD
 100
AcDbEntity
 8
0
 100
AcDbLine
 62
   256
 10
471.18238854
 20
-858.24804224
 30
153.83794619
 11
533.55084974
 21
-850.44255484
 31
154.19485871
 0
LINE
 5
5BE
 100
AcDbEntity
 8
0
 100
AcDbLine
 62
   256
 10
533.55084974
 20
-850.44255484
 30
154.19485871
 11
629.33991115
 21
-844.43656858
 31
154.50560416
 0
LINE
 5
5BF
 100
AcDbEntity
 8
0
 100
AcDbLine
 62
   256
 10
629.33991115
 20
-844.43656858
 30
154.50560416
 11
684.05097656
 21
-842.89838679
 31
154.15993805
 0
LINE
 5
5C0
 100
AcDbEntity
 8
0
 100
AcDbLine
 62
   256
 10
684.05097656
 20
-842.89838679
 30
154.15993805
 11
744.73133766
 21
-839.13177701
 31
152.46907330
 0
LINE
 5
5C1
 100
AcDbEntity
 8
0
 100
AcDbLine
 62
   256
 10
744.73133766
 20
-839.13177701
 30
152.46907330
 11
773.26734748
 21
-838.71008190
 31
151.74453723
 0
LINE
 5
5C2
 100
AcDbEntity
 8
0
 100
AcDbLine
 62
   256
 10
773.26734748
 20
-838.71008190
 30
151.74453723
 11
781.84377257
 21
-839.67921573
 31
151.33513021
 0
LINE
 5
5C3
 100
AcDbEntity
 8
0
 100
AcDbLine
 62
   256
 10
781.84377257
 20
-839.67921573
 30
151.33513021
 11
811.01039981
 21
-1293.43548505
 31
456.62120630
 0
LINE
 5
5C4
 100
AcDbEntity
 8
0
 100
AcDbLine
 62
   256
 10
1159.05247350
 20
-871.32401526
 30
89.67441915
 11
1085.32629080
 21
-857.08063773
 31
94.04484041
 0
LINE
 5
5C5
 100
AcDbEntity
 8
0
 100
AcDbLine
 62
   256
 10
1085.32629080
 20
-857.08063773
 30
94.04484041
 11
1006.01859785
 21
-838.08426258
 31
99.54936897
 0
LINE
 5
5C6
 100
AcDbEntity
 8
0
 100
AcDbLine
 62
   256
 10
1006.01859785
 20
-838.08426258
 30
99.54936897
 11
928.58153581
 21
-823.81448612
 31
104.76361038
 0
LINE
 5
5C7
 100
AcDbEntity
 8
0
 100
AcDbLine
 62
   256
 10
928.58153581
 20
-823.81448612
 30
104.76361038
 11
856.10807979
 21
-808.91712650
 31
108.88277165
 0
LINE
 5
5C8
 100
AcDbEntity
 8
0
 100
AcDbLine
 62
   256
 10
856.10807979
 20
-808.91712650
 30
108.88277165
 11
806.49405017
 21
-797.02799510
 31
111.71448105
 0
LINE
 5
5C9
 100
AcDbEntity
 8
0
 100
AcDbLine
 62
   256
 10
806.49405017
 20
-797.02799510
 30
111.71448105
 11
798.31637203
 21
-797.18074176
 31
107.55331038
 0
LINE
 5
5CA
 100
AcDbEntity
 8
0
 100
AcDbLine
 62
   256
 10
798.31637203
 20
-797.18074176
 30
107.55331038
 11
799.82813417
 21
-811.51304565
 31
108.65452254
 0
LINE
 5
5CB
 100
AcDbEntity
 8
0
 100
AcDbLine
 62
   256
 10
799.82813417
 20
-811.51304565
 30
108.65452254
 11
800.67324929
 21
-786.85318112
 31
104.87810210
 0
LINE
 5
5CC
 100
AcDbEntity
 8
0
 100
AcDbLine
 62
   256
 10
800.67324929
 20
-786.85318112
 30
104.87810210
 11
795.11899353
 21
-775.16940808
 31
62.45455180
 0
LINE
 5
5CD
 100
AcDbEntity
 8
0
 100
AcDbLine
 62
   256
 10
795.11899353
 20
-775.16940808
 30
62.45455180
 11
791.61986223
 21
-761.71086739
 31
14.59329577
 0
LINE
 5
5CE
 100
AcDbEntity
 8
0
 100
AcDbLine
 62
   256
 10
791.61986223
 20
-761.71086739
 30
14.59329577
 11
786.24254096
 21
-748.79087358
 31
-32.13751848
 0
LINE
 5
5CF
 100
AcDbEntity
 8
0
 100
AcDbLine
 62
   256
 10
1671.40249036
 20
-3001.46105469
 30
60.40800459
 11
1671.11883488
 21
-3001.88296196
 31
65.11717021
 0
LINE
 5
5D0
 100
AcDbEntity
 8
0
 100
AcDbLine
 62
   256
 10
1671.11883488
 20
-3001.88296196
 30
65.11717021
 11
1670.28807793
 21
-3005.70175386
 31
73.03251951
 0
LINE
 5
5D1
 100
AcDbEntity
 8
0
 100
AcDbLine
 62
   256
 10
1670.28807793
 20
-3005.70175386
 30
73.03251951
 11
1667.92194242
 21
-3010.35197569
 31
81.17796473
 0
LINE
 5
5D2
 100
AcDbEntity
 8
0
 100
AcDbLine
 62
   256
 10
1667.92194242
 20
-3010.35197569
 30
81.17796473
 11
1667.76340958
 21
-3016.55028537
 31
82.70905103
 0
LINE
 5
5D3
 100
AcDbEntity
 8
0
 100
AcDbLine
 62
   256
 10
1667.76340958
 20
-3016.55028537
 30
82.70905103
 11
1668.30079957
 21
-3021.24567753
 31
81.22013122
 0
LINE
 5
5D4
 100
AcDbEntity
 8
0
 100
AcDbLine
 62
   256
 10
1668.30079957
 20
-3021.24567753
 30
81.22013122
 11
1671.51314898
 21
-3023.00660454
 31
75.96274443
 0
LINE
 5
5D5
 100
AcDbEntity
 8
0
 100
AcDbLine
 62
   256
 10
1671.51314898
 20
-3023.00660454
 30
75.96274443
 11
1671.45553156
 21
-3024.92236722
 31
69.09488244
 0
LINE
 5
5D6
 100
AcDbEntity
 8
0
 100
AcDbLine
 62
   256
 10
1671.45553156
 20
-3024.92236722
 30
69.09488244
 11
1672.41942374
 21
-3024.95682846
 31
63.68522606
 0
LINE
 5
5D7
 100
AcDbEntity
 8
0
 100
AcDbLine
 62
   256
 10
1672.41942374
 20
-3024.95682846
 30
63.68522606
 11
1673.53309364
 21
-3025.00146720
 31
58.31378859
 0
LINE
 5
5D8
 100
AcDbEntity
 8
0
 100
AcDbLine
 62
   256
 10
1512.35886796
 20
-1417.35466102
 30
411.27116792
 11
1510.14967313
 21
-1409.70052740
 31
405.13932671
 0
LINE
 5
5D9
 100
AcDbEntity
 8
0
 100
AcDbLine
 62
   256
 10
1510.14967313
 20
-1409.70052740
 30
405.13932671
 11
1508.93257607
 21
-1381.57868549
 31
384.98547725
 0
LINE
 5
5DA
 100
AcDbEntity
 8
0
 100
AcDbLine
 62
   256
 10
1508.93257607
 20
-1381.57868549
 30
384.98547725
 11
1497.81418694
 21
-966.15499446
 31
86.43972959
 0
LINE
 5
5DB
 100
AcDbEntity
 8
0
 100
AcDbLine
 62
   256
 10
1497.81418694
 20
-966.15499446
 30
86.43972959
 11
1497.14188880
 21
-955.66759921
 31
78.72349703
 0
LINE
 5
5DC
 100
AcDbEntity
 8
0
 100
AcDbLine
 62
   256
 10
1497.14188880
 20
-955.66759921
 30
78.72349703
 11
1496.82792766
 21
-949.28271681
 31
75.14995585
 0
LINE
 5
5DD
 100
AcDbEntity
 8
0
 100
AcDbLine
 62
   256
 10
1517.54241059
 20
-1428.56808835
 30
401.95292510
 11
1517.07485738
 21
-1418.51588881
 31
394.63448348
 0
LINE
 5
5DE
 100
AcDbEntity
 8
0
 100
AcDbLine
 62
   256
 10
1517.07485738
 20
-1418.51588881
 30
394.63448348
 11
1511.72294795
 21
-1212.59377056
 31
246.80581488
 0
LINE
 5
5DF
 100
AcDbEntity
 8
0
 100
AcDbLine
 62
   256
 10
1511.72294795
 20
-1212.59377056
 30
246.80581488
 11
1506.70761460
 21
-1029.30262730
 31
114.96228227
 0
LINE
 5
5E0
 100
AcDbEntity
 8
0
 100
AcDbLine
 62
   256
 10
1506.70761460
 20
-1029.30262730
 30
114.96228227
 11
1505.14151084
 21
-985.93374042
 31
83.93676517
 0
LINE
 5
5E1
 100
AcDbEntity
 8
0
 100
AcDbLine
 62
   256
 10
1505.14151084
 20
-985.93374042
 30
83.93676517
 11
1504.10798076
 21
-972.14354472
 31
73.74639554
 0
LINE
 5
5E2
 100
AcDbEntity
 8
0
 100
AcDbLine
 62
   256
 10
1420.60285093
 20
-572.81691822
 30
42.91951121
 11
1417.27355814
 21
-608.95134680
 31
54.90160103
 0
LINE
 5
5E3
 100
AcDbEntity
 8
0
 100
AcDbLine
 62
   256
 10
1417.27355814
 20
-608.95134680
 30
54.90160103
 11
1401.27239554
 21
-653.29152026
 31
63.71075448
 0
LINE
 5
5E4
 100
AcDbEntity
 8
0
 100
AcDbLine
 62
   256
 10
1401.27239554
 20
-653.29152026
 30
63.71075448
 11
1383.23625665
 21
-695.25441821
 31
68.72225043
 0
LINE
 5
5E5
 100
AcDbEntity
 8
0
 100
AcDbLine
 62
   256
 10
1383.23625665
 20
-695.25441821
 30
68.72225043
 11
1355.78479161
 21
-716.41844678
 31
73.88342129
 0
LINE
 5
5E6
 100
AcDbEntity
 8
0
 100
AcDbLine
 62
   256
 10
1355.78479161
 20
-716.41844678
 30
73.88342129
 11
1336.58424637
 21
-740.21128557
 31
76.33698598
 0
LINE
 5
5E7
 100
AcDbEntity
 8
0
 100
AcDbLine
 62
   256
 10
1336.58424637
 20
-740.21128557
 30
76.33698598
 11
1295.92515337
 21
-741.88198214
 31
87.18496149
 0
LINE
 5
5E8
 100
AcDbEntity
 8
0
 100
AcDbLine
 62
   256
 10
1265.29259869
 20
-747.59769114
 30
92.09841487
 11
1215.65355616
 21
-758.78642615
 31
102.80692091
 0
LINE
 5
5E9
 100
AcDbEntity
 8
0
 100
AcDbLine
 62
   256
 10
1215.65355616
 20
-758.78642615
 30
102.80692091
 11
1149.05589922
 21
-770.85994605
 31
112.77795968
 0
LINE
 5
5EA
 100
AcDbEntity
 8
0
 100
AcDbLine
 62
   256
 10
1149.05589922
 20
-770.85994605
 30
112.77795968
 11
1101.53752552
 21
-782.63366844
 31
114.28905671
 0
LINE
 5
5EB
 100
AcDbEntity
 8
0
 100
AcDbLine
 62
   256
 10
1101.53752552
 20
-782.63366844
 30
114.28905671
 11
1041.20676468
 21
-785.51193361
 31
117.08809510
 0
LINE
 5
5EC
 100
AcDbEntity
 8
0
 100
AcDbLine
 62
   256
 10
1041.20676468
 20
-785.51193361
 30
117.08809510
 11
973.15249659
 21
-787.71679030
 31
115.18975762
 0
LINE
 5
5ED
 100
AcDbEntity
 8
0
 100
AcDbLine
 62
   256
 10
973.15249659
 20
-787.71679030
 30
115.18975762
 11
902.90131246
 21
-796.07965040
 31
107.49849752
 0
LINE
 5
5EE
 100
AcDbEntity
 8
0
 100
AcDbLine
 62
   256
 10
902.90131246
 20
-796.07965040
 30
107.49849752
 11
855.86030103
 21
-797.01914000
 31
108.89120898
 0
LINE
 5
5EF
 100
AcDbEntity
 8
0
 100
AcDbLine
 62
   256
 10
-265.87623613
 20
-1537.51664814
 30
430.19018206
 11
-264.64901073
 21
-1531.51618240
 31
424.10925607
 0
LINE
 5
5F0
 100
AcDbEntity
 8
0
 100
AcDbLine
 62
   256
 10
-264.64901073
 20
-1531.51618240
 30
424.10925607
 11
-267.03102720
 21
-1506.20922319
 31
405.89858389
 0
LINE
 5
5F1
 100
AcDbEntity
 8
0
 100
AcDbLine
 62
   256
 10
-267.03102720
 20
-1506.20922319
 30
405.89858389
 11
-268.42493839
 21
-1481.26119345
 31
388.17535665
 0
LINE
 5
5F2
 100
AcDbEntity
 8
0
 100
AcDbLine
 62
   256
 10
-268.42493839
 20
-1481.26119345
 30
388.17535665
 11
-272.90657641
 21
-1440.03516422
 31
357.24155159
 0
LINE
 5
5F3
 100
AcDbEntity
 8
0
 100
AcDbLine
 62
   256
 10
-272.90657641
 20
-1440.03516422
 30
357.24155159
 11
-280.71312505
 21
-1379.34392839
 31
311.15719109
 0
LINE
 5
5F4
 100
AcDbEntity
 8
0
 100
AcDbLine
 62
   256
 10
-280.71312505
 20
-1379.34392839
 30
311.15719109
 11
-287.71980795
 21
-1312.65204789
 31
260.63748550
 0
LINE
 5
5F5
 100
AcDbEntity
 8
0
 100
AcDbLine
 62
   256
 10
-287.71980795
 20
-1312.65204789
 30
260.63748550
 11
-295.29291888
 21
-1239.58827047
 31
206.24564913
 0
LINE
 5
5F6
 100
AcDbEntity
 8
0
 100
AcDbLine
 62
   256
 10
-295.29291888
 20
-1239.58827047
 30
206.24564913
 11
-303.91897466
 21
-1171.02954659
 31
155.41032785
 0
LINE
 5
5F7
 100
AcDbEntity
 8
0
 100
AcDbLine
 62
   256
 10
-303.91897466
 20
-1171.02954659
 30
155.41032785
 11
-310.16309319
 21
-1118.16297535
 31
117.77252859
 0
LINE
 5
5F8
 100
AcDbEntity
 8
0
 100
AcDbLine
 62
   256
 10
-310.16309319
 20
-1118.16297535
 30
117.77252859
 11
-313.57161523
 21
-1087.11428297
 31
95.78804113
 0
LINE
 5
5F9
 100
AcDbEntity
 8
0
 100
AcDbLine
 62
   256
 10
-313.57161523
 20
-1087.11428297
 30
95.78804113
 11
-316.45903102
 21
-1076.78446826
 31
85.86782027
 0
LINE
 5
5FA
 100
AcDbEntity
 8
0
 100
AcDbLine
 62
   256
 10
-317.17795821
 20
-1077.76760812
 30
85.51219700
 11
-319.74362238
 21
-1092.77324806
 31
84.67621729
 0
LINE
 5
5FB
 100
AcDbEntity
 8
0
 100
AcDbLine
 62
   256
 10
-319.74362238
 20
-1092.77324806
 30
84.67621729
 11
-322.98992131
 21
-1111.88465594
 31
83.66877572
 0
LINE
 5
5FC
 100
AcDbEntity
 8
0
 100
AcDbLine
 62
   256
 10
-322.98992131
 20
-1111.88465594
 30
83.66877572
 11
-324.34900411
 21
-1136.63043061
 31
82.64729639
 0
LINE
 5
5FD
 100
AcDbEntity
 8
0
 100
AcDbLine
 62
   256
 10
-324.34900411
 20
-1136.63043061
 30
82.64729639
 11
-321.48356762
 21
-1162.60597704
 31
82.85783415
 0
LINE
 5
5FE
 100
AcDbEntity
 8
0
 100
AcDbLine
 62
   256
 10
-321.48356762
 20
-1162.60597704
 30
82.85783415
 11
-318.35718086
 21
-1243.62680848
 31
82.12000294
 0
LINE
 5
5FF
 100
AcDbEntity
 8
0
 100
AcDbLine
 62
   256
 10
-318.35718086
 20
-1243.62680848
 30
82.12000294
 11
-317.78629085
 21
-1344.94441860
 31
81.16709916
 0
LINE
 5
600
 100
AcDbEntity
 8
0
 100
AcDbLine
 62
   256
 10
-317.78629085
 20
-1344.94441860
 30
81.16709916
 11
-317.16370168
 21
-1472.65174656
 31
81.91938435
 0
LINE
 5
601
 100
AcDbEntity
 8
0
 100
AcDbLine
 62
   256
 10
-317.16370168
 20
-1472.65174656
 30
81.91938435
 11
-316.22754369
 21
-1608.52557488
 31
84.40009950
 0
LINE
 5
602
 100
AcDbEntity
 8
0
 100
AcDbLine
 62
   256
 10
-316.22754369
 20
-1608.52557488
 30
84.40009950
 11
-313.93020905
 21
-1715.99280054
 31
85.80384388
 0
LINE
 5
603
 100
AcDbEntity
 8
0
 100
AcDbLine
 62
   256
 10
-313.93020905
 20
-1715.99280054
 30
85.80384388
 11
-311.61221494
 21
-1838.54913268
 31
89.03194675
 0
LINE
 5
604
 100
AcDbEntity
 8
0
 100
AcDbLine
 62
   256
 10
-311.61221494
 20
-1838.54913268
 30
89.03194675
 11
-304.51662428
 21
-2001.79567073
 31
95.31282005
 0
LINE
 5
605
 100
AcDbEntity
 8
0
 100
AcDbLine
 62
   256
 10
-304.51662428
 20
-2001.79567073
 30
95.31282005
 11
-294.75648346
 21
-2187.80944405
 31
103.47721898
 0
LINE
 5
606
 100
AcDbEntity
 8
0
 100
AcDbLine
 62
   256
 10
-294.75648346
 20
-2187.80944405
 30
103.47721898
 11
-288.84746121
 21
-2300.76725466
 31
108.92783371
 0
LINE
 5
607
 100
AcDbEntity
 8
0
 100
AcDbLine
 62
   256
 10
-288.84746121
 20
-2300.76725466
 30
108.92783371
 11
-288.29809167
 21
-2358.04362372
 31
111.85721028
 0
LINE
 5
608
 100
AcDbEntity
 8
0
 100
AcDbLine
 62
   256
 10
-288.29809167
 20
-2358.04362372
 30
111.85721028
 11
-286.21211642
 21
-2385.08944708
 31
113.28967629
 0
LINE
 5
609
 100
AcDbEntity
 8
0
 100
AcDbLine
 62
   256
 10
-286.21211642
 20
-2385.08944708
 30
113.28967629
 11
-283.19569702
 21
-2390.49151775
 31
113.61552175
 0
ENDSEC
 0
SECTION
 2
OBJECTS
 0
DICTIONARY
 5
C
 100
AcDbDictionary
 3
ACAD_GROUP
 350
D
 3
ACAD_MLINESTYLE
 350
17
 0
DICTIONARY
 5
D
 100
AcDbDictionary
 0
DICTIONARY
 5
17
 100
AcDbDictionary
 3
STANDARD
 350
18
 0
MLINESTYLE
 5
18
 100
AcDbMlineStyle
 2
STANDARD
 70
     0
 3

 62
   256
 51
90.0
 52
90.0
 71
     2
 49
0.5
 62
   256
 6
BYLAYER
 49
-0.5
 62
   256
 6
BYLAYER
 0
ENDSEC
 0
EOF
